На головну сторінку

Коли До Губ Твоїх...

Повна табулатура

Слова: Григорій ЧубайМузика: Тарас Чубай
Виконує: Плач Єремії  (альбом "Я піду в далекі гори")
До мого пісенника: 1 2 3

 
  Вступ:


  Fm#				E'           Hm	      Cm#     Fm#

1|--------------2---0-2-4-5-4tr5--|7--0-2-4-0-----2--------4-------------|-2
2|----------2---------------------|9----7-9----|3--3----|5--5------------|-2
3|--------2-----------------------|9--9-----9--|4---2---|6---4---------2-|-2
4|------4-------------------------|9-----------|4-------|6-----------4---|-4
5|----4---------------------------|7-------------------------------4-----|-4
6|--2-----------------------------|7-----------------------------2-------|-2


Акорд Е' можна грати як від 2-ого (для поганих гітар), так і від 7-ого
(для добрих гітар,
зогрема елок) ладів.

------------------------------x2x-----|
------x2x---------------------x2x-----|
------x2x--------x2x------------------|  X 2
---------------------x4x--------------|
--------------------------------------|
--X2x-------x2x-----------------------|

А це можна зімітувати ударку - чіпляти приглушені струни.
В такому ритмі і грається перший куплет. Приспів вже перебором

  Fm#                E
Коли до губ твоїх лишається півподиху,
  Hm		    Cm#
Коли до губ твоїх лишається півкроку –
  Fm#      E
Зіниці твої виткані із подиву,
Fm#                     Cm#
В очах у тебе синьо і широко.

Fm#		    E        A
   Щось шепчеш зачаровано і тихо ти,
D	          A           E
   Той шепіт мою тишу синьо крає,
Fm#          E           A
   І забуваю я, що вмію дихати,
Hm 		Cm#      Fm#
   І що ходити вмію, забуваю.


solo:

 Соляк грається у пітчі, але на акустиці можна прикраcbти гру,
 граючи октавами. Саму тему краще грати на 2-й струні. На електрусі
 ліпше грати на 2-ій та 5-ій струні, на веслах типу Чернігова чи
 дешевоі трембіти - на 1-ій та 4-ій.

 З електрухою вмикати квакушку, але мені більше пасує тремоло.

1|-------|------------------------|---------------------------------------|
2|--5-7~-|---10-12--10--12--14-14-|----14-12-10---10/12---7-7/9-----5-/7--|
3|-------|------------------------|---------------------------------------|
4|--2-4~-|---7--9---7---9---11-11-|----11-9--7----7/9---------------------|
5|--------------------------------------------------------9-9/11----7-/9--|

1|------------------------------------------------------------------------|
2|---------------------10-12-10-12-14-----12-12b-12/10--12-10----10-10----|
3|-----------------7/9--------------------------------------11------------|
4|-4-7/9-9/11-11\9--------------------------------------------------------|
5|------------------------------------------------------------------------|

1|------------------------------|-----------------------------------------|
2|-12-12b-12/10--12-10----10-10-|--12-10-8--------------------------------|
3|---------------------11-------|-----------9-----------------------------|
4|------------------------------|-------------11-10-9---9-7-----7/9-------|
5|------------------------------|---------------------------9--------9----|


Fm#		    E        A
   А чорний птах повік твоїх здіймається
D                 A            E
   І впевненість мою кудись відмає.
Fm#		    E        A
   Неступленим півкроку залишається,
Hm 		Cm#      Fm#
   Півподиху у горлі застрягає.

Fm#		    E        A
   Зіниці твої виткані із подиву,
D                 A         E
   В очах у тебе синьо і широко,
Fm#		    E        A
   Але до губ твоїх лишається півподиху,
Hm 		Cm#      Fm#
   До губ твоїх лишається півкроку.

Fm#             Gm7# 		  A
   Але до губ твоїх лишається півподиху,
Hm 		Cm#          F#
   До губ твоїх лишається півкроку


  тож прошу ваших коментів.
Поділитись сторінкою: FB
 
  ІНФОРМАЦІЯ ПРО ПІСНЮ
[cховати]

Ключові слова: Балади, Коли До Губ Твоїх..., Григорій Чубай, Тарас Чубай, Повна табулатура, Плач Єремії, Я піду в далекі гори
Підбір акордів: kpss

Пісню ввів(-ла): kpss  20.03.2008
Відредаґовано: 26.04.2015
Переглядів: 29042
  ДИВІТЬСЯ ТАКОЖ
[cховати]
Інші варіянти цієї пісні
НазваСлова / МузикаA Файли  #
 Коли до губ твоїх (гол. варіант) Г. Чубай / Т. Чубай+71435
 Коли до губ твоїх * Г. Чубай / Т. Чубай+ 7407
 Коли до губ твоїх ** Г. Чубай / Т. Чубай+ 14843
 Коли до губ твоїх **** Г. Чубай / Т. Чубай+ 3516
 Коли до губ твоїх *****
 (інші акорди)
Г. Чубай / Т. Чубай+ 4075
 Аби побачити пояснення малюнків у колонці "Файли", підведіть курсор мишки до малюнка.      
Підбірки пісень:
Балади
Пісні про кохання, ліричні
  ВАША ДУМКА ТА ПОБАЖАННЯ
[cховати]
Якість підбору акордів
Оцінка: 4.68  Голосів: 158
 < ПоганоДобре > 
1 2 3 4 5
  ЗАПИСИ, MP3, НОТИ (1) Скачати безкоштовно :)

Увага! Пісня присутня на сайті у кількох варіантах, у них теж можуть бути записи та ноти!
Переглянути варіанти >>
ВмістФорматОписРозмір, кб#
 MP3 Аудіозапис (mp3, 192 kbps)
Виконує: Плач Єремії
Джерело: надала МандАринкА
ввів(-ла): 05.11.2010
5,147210
  Увійдіть як зареєстрований користувач, щоб прослухати.


Увага! Всі матеріали можна скачати безплатно виключно з ознайомчою метою для приватного використання! При додаванні файлів зважайте на авторські права! Щоб мати змогу додавати файли, у Вашому бровзері має бути дозволений JavaScript та відкривання нових вікон!

  ВІДЕОЗАПИСИ, КЛІПИ

Увага! Пісня присутня на сайті у кількох варіантах, у них теж можуть бути додані відеокліпи!
Переглянути варіанти >>
На жаль, до цієї пісні поки що немає жодного кліпа :(

  ВИПРАВЛЕННЯ ТА ДОПОВНЕННЯ     ПРАВИЛА!     ДЕ СКАЧАТИ mp3 ?!
[cховати]
14. vovik (гість) 02.10.2011 11:43    
як на мене повсюди краще грати F#
0/0

13. Бодя (гість) 19.04.2011 18:59    
Перебір: 3-2-3-1-2-3-2

Зустрічне питання як грати акорд Gm7#

Наперед дякую!
0/0

12. Бодя (гість) 15.04.2011 16:55    
Підкажіть перебір до неї! Наперед дякую!
0/0

11. HAnS (користувач) 22.11.2009 10:50    
Ехх... за останній місяць ця пісенька так мені вуха намозолила, що лише зранку випадково зігравши не по своїм табам, зрозумів, що вони трохи неправильні: в третьому рифі з кінця треба брати на лад менше, тобто там C#m.
Файл gp5 оновив, а таби ось

  Fm                                                                        
Q Q Q Q Q H Q Q Q Q Q H
E||---------------------------2--------|--0----2----4----5----4s----5~--------|
B||----------------------2-------------|--------------------------------------|
G||-----------------2------------------|--------------------------------------|
D||------------4-----------------------|--------------------------------------|
A||-------4----------------------------|--------------------------------------|
E||--2---------------------------------|--------------------------------------|


E
S S S S S H Q Q H H Q Q Q Q
------------0--------|--0----2----4--------0--------|------------2---------|
----------0----------|------------------------------|-----------------3----|
--------1------------|------------------------------|----------------------|
------2--------------|------------------------------|-------4--------------|
----2----------------|------------------------------|--2-------------------|
--0------------------|------------------------------|----------------------|


Q Q Q Q Q Q H S S S S S H
------------4---------|------------2--------|------------2--------||
-----------------5----|---------------------|----------2----------||
----------------------|---------------------|--------2------------||
-------6--------------|---------------------|------4--------------||
--4-------------------|-------4-------------|----4----------------||
----------------------|--2------------------|--2-
0/0

10. HAnS (користувач) 21.11.2009 20:23    
Ой, перепрошую, забув форматування
Fm                                                                        
     Q    Q    Q    Q    Q    H           Q    Q    Q    Q    Q     H          
E||---------------------------2--------|--0----2----4----5----4s----5~--------|
B||----------------------2-------------|--------------------------------------|
G||-----------------2------------------|--------------------------------------|
D||------------4-----------------------|--------------------------------------|
A||-------4----------------------------|--------------------------------------|
E||--2---------------------------------|--------------------------------------|


  E                                                                         
  S S S S S H           Q    Q    H        H           Q    Q    Q    Q     
------------0--------|--0----2----4--------0--------|------------2---------|
----------0----------|------------------------------|-----------------3----|
--------1------------|------------------------------|----------------------|
------2--------------|------------------------------|-------4--------------|
----2----------------|------------------------------|--2-------------------|
--0------------------|------------------------------|----------------------|


  Q    Q    Q    Q       Q    Q    H           S S S S S H          
------------5---------|------------2--------|------------2--------||
-----------------6----|---------------------|----------2----------||
----------------------|---------------------|--------2------------||
-------7--------------|---------------------|------4--------------||
--5-------------------|-------4-------------|----4----------------||
----------------------|--2------------------|--2------------------||
0/0

9. HAnS (користувач) 21.11.2009 20:22    
Текстовий варіант табулатури
     Fm                                                                        
     Q    Q    Q    Q    Q    H           Q    Q    Q    Q    Q     H          
E||---------------------------2--------|--0----2----4----5----4s----5~--------|
B||----------------------2-------------|--------------------------------------|
G||-----------------2------------------|--------------------------------------|
D||------------4-----------------------|--------------------------------------|
A||-------4----------------------------|--------------------------------------|
E||--2---------------------------------|--------------------------------------|


  E                                                                         
  S S S S S H           Q    Q    H        H           Q    Q    Q    Q     
------------0--------|--0----2----4--------0--------|------------2---------|
----------0----------|------------------------------|-----------------3----|
--------1------------|------------------------------|----------------------|
------2--------------|------------------------------|-------4--------------|
----2----------------|------------------------------|--2-------------------|
--0------------------|------------------------------|----------------------|


  Q    Q    Q    Q       Q    Q    H           S S S S S H          
------------5---------|------------2--------|------------2--------||
-----------------6----|---------------------|----------2----------||
----------------------|---------------------|--------2------------||
-------7--------------|---------------------|------4--------------||
--5-------------------|-------4-------------|----4----------------||
----------------------|--2------------------|--2------------------||
0/0

8. HAnS (користувач) 21.11.2009 20:22    
Мабуть я не перший, кого цей підбір здорово обламує Ну, по-перше, не в кожного пальці розтягнуться на 5 ладів різниці, а по-друге "бринь" [799977] особисто для мене не звучить якось...
Посидів за Торонтським записом Чубая, подивився як грає він. І грає він значно простіше
Я спробував підібрати це щастячко в цьому варіанті (що вгледів, що вчув, все-таки ютюбна якість).

http://www.alltransua.com/kdgt.gp5
0/0

7. HAnS (гість) 12.09.2009 17:35    
Що означає коли йде номер ладу а через дріб якась цифра. Наприклад:7/9-----5-/7. Наперед дякую.

НЯЗ це означає використання прийому леґато http://uk.wikipedia.org/wiki/%D0%9B%D0%B5%D0%B3%D0%B0%D1%82%D0%BE
0/0

6. yarstar (гість) 20.05.2009 19:19    
молодець! все правильно
0/0

5. Міша (гість) 10.04.2009 17:39    
Народ поясніть для мене чайника. Що означає коли йде номер ладу а через дріб якась цифра. Наприклад:7/9-----5-/7. Наперед дякую. А взагалі соло підібране просто відпад.
0/0

4. Nitspol (користувач) 22.03.2009 00:34    
Вступ:

  Fm#				E'  C         	Hm       C#m    F#m

1|--------------2---0-2-4-5-4tr5--|0--0-2-4-0--|2-2-----|4-4---|---------|-2
2|----------2---------------------|1-----------|3--3----|5--5--|---------|-2
3|--------2-----------------------|0-----------|4---4---|6---6-|-------2-|-2
4|------4-------------------------|2-----------|4-------|6-----|-----4---|-4
5|----4---------------------------|3-----------|2-------|4-----|---4-----|-4
6|--2-----------------------------|7-----------|2-------|4-----|-2-------|-2

+1/0

3. Nastja i Sofija (гість) 31.08.2008 14:28    
Dy*e klsno!!!
0/0

2. Свят (гість) 10.04.2008 09:17    
Круто! Правда соло на акустичній трохи тяжко.
0/0

1. kpss (гість) 04.04.2008 14:28    
забув - у соло в другому рядку зайва друга половина - одразу переходити на з-й рядок, хоча, думаю, воно буде зрозуміло
0/0


  Адреса цієї сторінки: https://www.pisni.org.ua/songs/863103.html

 ВХІД
Е-мейл: 
Пароль: 
  Забули пароль?
  
  ПІДПИШІТЬСЯ! ГРУПИ У СОЦМЕРЕЖАХ
FB