На головну сторінку

Коли до губ твоїх *


Слова: Григорій ЧубайМузика: Тарас Чубай
До мого пісенника: 1 2 3

  4/4
Вступ:

E-----------0-2-4-5-4h5p4--0--0-2-4-0--2-2---4-4---2------2-|
H---------2----------------0-----------3--3--5--5--2------2-|
G--------2-----------------1-----------4---4-6---6-2--2---2-|
D----4---------------------2-----------4-----6-----4------4-|
A--4---4-------------------2-----------2-----4-----4-4-4--4-|
E-2------------------------0-----------------------2------2-|

Fm# Fm#
E
Hm
Cm#
Fm# Fm#


Fm# E
Коли до губ твоїх лишається півподиху,
Hm Cm#
Коли до губ твоїх лишається півкроку –
Fm# E
Зіниці твої виткані із подиву,
Fm# Cm#
В очах у тебе синьо і широко.

Fm# E A
Щось шепчеш зачаровано і тихо ти,
D A E
Той шепіт мою тишу синьо крає.
Fm# E A
І забуваю я, що вмію дихати,
Hm Cm# Fm#
І що ходити вмію забуваю.

Соло:

E------------------------------------------------------------|
H----------10-12-10--12\14------14\12--10--10h12-------------|
G--9\11--9----------------------------------------11--9--9\11|
D------------------------------------------------------------|
A------------------------------------------------------------|
E------------------------------------------------------------|

E---------------------------------------------------------------------------------------------------|
H-------------------------10-12-10--12\14----12h14p12--10--10---10h12p10----------------------------|
G--9\11--11-13-11--9-11-9--------------------------------11-------------11--11-9--------------------|
D--------------------------------------------------------------------------------11-9-7--7-9-7-9-11-|
A--------------------------------------------------------------------------------------------------9|
E---------------------------------------------------------------------------------------------------|


Fm# E A
А чорний птах повік твоїх здіймається
D A E
І впевненість мою кудись відмає.
Fm# E A
Неступленим півкроку залишається,
Hm Cm# Fm#
Півподиху у горлі застряває. 

Fm# E A
Зіниці твої виткані із подиву,
D A E
В очах у тебе синьо і широко,
Fm# E A
Але до губ твоїх лишається півподиху,
Hm Cm# Fm#
До губ твоїх лишається півкроку

Останні два рядка повторюємо, а замість останнього Fm# граємо F#.
Поділитись сторінкою: FB
 
  ІНФОРМАЦІЯ ПРО ПІСНЮ
[cховати]

Ключові слова: Коли до губ твоїх 1, Григорій Чубай, Тарас Чубай
Підбір акордів: Артем Рибачук

Примітки: Підібір для двух гітар. Одна - ритм, друга солює і обігрує акорди.

Пісню ввів(-ла): Артем Рибачук  02.01.2008
Відредаґовано: 20.10.2013
Переглядів: 7408
  ДИВІТЬСЯ ТАКОЖ
[cховати]
Інші варіянти цієї пісні
НазваСлова / МузикаA Файли  #
 Коли до губ твоїх (гол. варіант) Г. Чубай / Т. Чубай+71477
 Коли До Губ Твоїх...
 (Повна табулатура)
Г. Чубай / Т. Чубай+ 29064
 Коли до губ твоїх ** Г. Чубай / Т. Чубай+ 14844
 Коли до губ твоїх **** Г. Чубай / Т. Чубай+ 3518
 Коли до губ твоїх *****
 (інші акорди)
Г. Чубай / Т. Чубай+ 4075
 Аби побачити пояснення малюнків у колонці "Файли", підведіть курсор мишки до малюнка.      
Підбірки пісень:
Пісні про кохання, ліричні
  ВАША ДУМКА ТА ПОБАЖАННЯ
[cховати]
Якість підбору акордів
Оцінка: 5  Голосів: 202
 < ПоганоДобре > 
1 2 3 4 5
  ЗАПИСИ, MP3, НОТИ Скачати безкоштовно :)

Увага! Пісня присутня на сайті у кількох варіантах, у них теж можуть бути записи та ноти!
Переглянути варіанти >>
На жаль, до цієї пісні поки що немає жодного файла :(

Увага! Всі матеріали можна скачати безплатно виключно з ознайомчою метою для приватного використання! При додаванні файлів зважайте на авторські права! Щоб мати змогу додавати файли, у Вашому бровзері має бути дозволений JavaScript та відкривання нових вікон!

  ВІДЕОЗАПИСИ, КЛІПИ

Увага! Пісня присутня на сайті у кількох варіантах, у них теж можуть бути додані відеокліпи!
Переглянути варіанти >>
На жаль, до цієї пісні поки що немає жодного кліпа :(

  ВИПРАВЛЕННЯ ТА ДОПОВНЕННЯ     ПРАВИЛА!     ДЕ СКАЧАТИ mp3 ?!
[cховати]

  Адреса цієї сторінки: https://www.pisni.org.ua/songs/460230.html

 ВХІД
Е-мейл: 
Пароль: 
  Забули пароль?
  
  ПІДПИШІТЬСЯ! ГРУПИ У СОЦМЕРЕЖАХ
FB