На головну сторінку

Найкраща мить


Виконує: Mad Heads (XL)
До мого пісенника: 1 2 3

 
Уяви собі - разом будемо ми,
Після осені довгих дощів,
Хуртовин зими,
Через простір, час,
Крізь вогонь і лід.
Як на двох, одна мрія у нас:
Свій збудуємо світ.

Приспів:
Там будеш тільки ти,           |
Там буду тільки я,             |
У цю найкращу мить мого життя. |
Там будеш тільки ти,           |
Там буду тільки я,             | (2)
У цю найкращу мить мого життя. |
Там будеш тільки ... ти,       |
О-о-о-у... а-а-а-а...          |

Уяви собі - небо знає про нас,
Хоч, буває, ідем у пітьмі,
Тa вогонь наш не згас.
Ми з тобою знайшлись на землі
Десь-колись
І зустрітись домовились
Знов на планеті Любов.

Приспів.

Там будеш тільки ... ти. | (2)

Приспів.

Там будеш тільки ти! | (4)
Поділитись сторінкою: FB
 
  ІНФОРМАЦІЯ ПРО ПІСНЮ
[cховати]

Ключові слова: Найкраща мить, Mad Heads (XL)
Джерело: аудіозапис

Пісню додано:  28.06.2008
Відредаґовано: 12.02.2022
Переглядів: 8257
  ЗАПИСИ, MP3, НОТИ (1) Скачати безкоштовно :)

Дізнатися більше
ВмістФорматОписРозмір, кб#
 Guitar Pro Інтро та куплет.
Джерело: На слух та з відео
ввів: HAnS 28.09.2012
445


Увага! Всі матеріали можна скачати безплатно виключно з ознайомчою метою для приватного використання! При додаванні файлів зважайте на авторські права! Щоб мати змогу додавати файли, у Вашому бровзері має бути дозволений JavaScript та відкривання нових вікон!

  ВІДЕОЗАПИСИ, КЛІПИ

На жаль, до цієї пісні поки що немає жодного кліпа :(

  ВИПРАВЛЕННЯ ТА ДОПОВНЕННЯ     ПРАВИЛА!     ДЕ СКАЧАТИ mp3 ?!
[cховати]
5. HAnS (користувач) 28.09.2012 18:05    
Інтро
      G                              C                           
      E  E  E  E  E    T S. E  E     E  E  E  E  E  E  S  S  E   
E||---3-----------5--3g5-3--------|--------------0--------------|
B||---------3---------------3-----|--1-----1-----------0h-1p-0--|
G||*-----4-----4---------------4--|-----0-----0-----0-----------|
D||*--5---------------------------|-----------------------------|
A||-------------------------------|--3--------------------------|
E||-------------------------------|-----------------------------|


  Cm          D                Em                         
  E  E  E  E  E  E  S  S E     E  E  E  E  E  E  S  S E   
--------3-----------3p-2----|--------------3-------------|
--1-----------3----------3--|--0-----0-------------------|
-----0-----0-----2----------|-----0-----0-----0--9p-7----|
--1-----------0-------------|-------------------------9--|
----------------------------|--2-------------------------|
----------------------------|----------------------------|


   G              D              Em                              
   E   E   E   E  E  E  E  E     E  E  E  E  E    T S. S  S  E   
------------------------------|---------------------------------|
--12------12------7-----7-----|--8-----8------------------------|
------12------12-----7-----7--|-----------7--9--7g9-7-----------|
------------------------------|-----9------------------9p-7S-5--|
--10--------------5-----------|--7------------------------------|
------------------------------|---------------------------------|


  Cm          D                     
  E  E  E  E  E  E  E  E   3x       
---------------------------||-----||
--4-----4-----7-----7------||-----||
-----------------7-----7--*||-----||
-----5-----5--------------*||-----||
--3-----------5------------||-----||
---------------------------||-----||
+1/0

4. HAnS (користувач) 28.09.2012 18:04    
G       C    Cm    D     Em
Уяви собі - разом будемо ми,
G      D       Em
Після осені довгих дощів,
Cm       D    G
Хуртовин зими,
G              C
Через простір, час,
Cm    D     Em
Крізь вогонь і лід.
G        D       Em
Як на двох, одна мрія у нас:
Cm       D      G
Свій збудуємо світ.

Приспів:
G                   Em
   Там будеш тільки ти,
                 Am               |
   Там буду тільки я, 
     Cm     D                G    |
   У цю найкращу мить мого життя. |
                    Em
   Там будеш тільки ти,           |
                  Am
   Там буду тільки я,             | (2)
     Cm     D                G
   У цю найкращу мить мого життя. |
                Em       Am
   Там будеш тільки ... ти,       |
    Cm           D     
   О-о-о-у... а-а-а-а...          |

Уяви собі - небо знає про нас,
Хоч, буває, ідем у пітьмі,
Тa вогонь наш не згас.
Ми з тобою знайшлись на землі
Десь-колись
І зустрітись домовились
Знов на планеті Любов.

Приспів.

Там будеш тільки ... ти. | (2)

Приспів.

Там будеш тільки ти! | (4)

0/0

3. Solomija (користувач) 23.07.2010 15:05    
акорди супер!!!
+1/0

2. bna (гість) 17.08.2009 21:18    
G      C   Cadd9 D      G
Уяви собі- разом будемо ми,
G            Em          C     D     G
Після осені довгих дощей,хуртовин зими,
G              C  Cadd9    D       G
Через простір час,крізь вогонь і лід,
G                 Em        C         D       G
Як на двох одна мрія у нас, скрізь будуємо слід.

 Приспів:
    G                Em                  C
   /Там будеш тільки ти, там буду тільки я,
                   Cadd9 D    G
    У цю найкращу мить мого життя!/ (2 рази)
    G               Cadd9  Am   Cadd9 D G
   /Там будеш тільки ти   о-о-о  а  -а  -а/ (2 рази)

Уяви собі- небо знає про нас,
Хоч буває ідемо в пітьмі, та вогонь наш не згас.
Ми з тобою знайшлись, на землі десь- колись,  
І зустрітись домовились знов на планеті любов.
+1/0

1. Андрій (гість) 06.06.2009 22:44    
Акорди:

Подаю акорди на два тони нище від оригіналу
Перший куплет і другий F, Bb, C,
Приспів Dm F Bb C
0/0


  Адреса цієї сторінки: https://www.pisni.org.ua/songs/968585.html

 ВХІД
Е-мейл: 
Пароль: 
  Забули пароль?
  
  ПІДПИШІТЬСЯ! ГРУПИ У СОЦМЕРЕЖАХ
FB