На головну сторінку

Новий день


Слова: Святослав ВакарчукМузика: Океан Ельзи
Виконує: Океан Ельзи
До мого пісенника: 1 2 3

 
Riff 1  * (див. після основного тексту)
Riff 2

 Am F          C  E        Am
Чу- єш, як весна день починає,
 F         C  E        Am
Бачиш, як сонце зустрiчає?
 F         C  E      Am
Там, де вода воду шукає,
 F      C  E Am
Ти побувай.

Приспiв (Riff 1):
    F
  Знову і знову видно з вікна
   F               Dm         E
  Наше розпатлане сонце - і знов
  Новий день прийшов.

Riff 2 A

Чуєш, як весна день починає,
Бачиш, як тiнь в стелю тiкає?
Голосом дивним нас вiтає
Цей новий день.

Приспiв (Riff 1)

Riff 2 A

Чуєш, як весна день починає,
Бачиш, як краплями падає вниз
Там де вода воду шукає
Ти побувай

Solo                       |--1-по-3-------\           
E||------------------------|------------------------||------------------------||
B||------------------------|--------------3b---3----||--------------3bs-5s3---||
G||*-2--2--5--2--2--5------|--2--5--5--2-----------*||--2--5--5--2------------||
D||*-----------------------|-----------------------*||------------------------||
A||------------------------|------------------------||------------------------||
E||------------------------|------------------------||------------------------||

Приспiв (Riff 1)


*

Riff 1:
   F
E||--13~-----12------13----|--13~-----12------13----|
B||------------------------|------------------------|
G||------------------------|------------------------|
D||------------------------|------------------------|
A||------------------------|------------------------|
E||------------------------|------------------------|

--13~-----12------13----|--15~-------------------| 
------------------------|------------------------|
------------------------|------------------------|
------------------------|------------------------|
------------------------|------------------------|
------------------------|------------------------|
                                                                      
--13~-----12------13----|--13~-----12------13----|
------------------------|------------------------|
------------------------|------------------------|
------------------------|------------------------|
------------------------|------------------------|
------------------------|------------------------|
                  Dm       E                    
--13~-----12------10----|--7~---------------|
------------------------|-------------------|
------------------------|-------------------|
------------------------|-------------------|
------------------------|-------------------|
------------------------|-------------------|

Riff2:
      Am          F              C           E
E||---------------------------|-----------------------------|
B||---5--5--5--3--5--5--5--3--|--5--3--5--6--8--6--5h6h5-3--|
G||*--------------------------|-----------------------------|
D||*--------------------------|-----------------------------|
A||---------------------------|-----------------------------|
E||---------------------------|-----------------------------|

  Am          F              C           E
                          |-1-по-3---------------------\  
--------------------------|------------------------------||
--5--5--5--3--5--5--5--3--|--5--5--5--5--5--3--1h3h1-0---||
--------------------------|-----------------------------*||
--------------------------|-----------------------------*||
--------------------------|------------------------------||
--------------------------|------------------------------||

  C           E              Am      F 
-4-----------------------------\                
--------------------------|-------------------|
--5--3--1--0--1--0--------|-------------------|
--------------------2--0--|--2----------------|
--------------------------|-------------------|
--------------------------|-------------------|
--------------------------|-------------------|

Riff 2 A:
    Am          F          C          E     
|------------------------|----------------------------||
|---5--5--5--3--5~-------|------5--6--8--6--5h6h5-3---||
|*-----------------------|---------------------------*||
|*-----------------------|---------------------------*||
|------------------------|----------------------------||
|------------------------|----------------------------||
  Am          F           C          E                 Am          F        
------------------------|---------------------------|-------------------------|
--5--5--5--3--5--5------|------5--6--8--6--5h6h5-3--|--5--5--5--3--5----x--x--|
------------------------|---------------------------|-------------------------|
------------------------|---------------------------|-------------------------|
------------------------|---------------------------|-------------------------|
------------------------|---------------------------|-------------------------|
  C           E              Am       F                                     
--------------------------|--5~---------------||
--3--1--0--1h-0-----------|-------------------||
-----------------2--0h-2--|-------------------||
--------------------------|-------------------||
--------------------------|-------------------||
--------------------------|-------------------||
Поділитись сторінкою: FB
 
  ІНФОРМАЦІЯ ПРО ПІСНЮ
[cховати]

Ключові слова: Новий день, Святослав Вакарчук, Океан Ельзи
Підбір акордів: smash
Джерело: текст (основа) - http://www.okeanelzy.com/ua/

Пісню ввів: bohdanko  30.04.2004
Відредаґовано: 15.07.2013
Переглядів: 6158
  ДИВІТЬСЯ ТАКОЖ
[cховати]
Підбірки пісень:
Пісні про красу природи
  ВАША ДУМКА ТА ПОБАЖАННЯ
[cховати]
Якість підбору акордів
Оцінка: 3.29  Голосів: 7
 < ПоганоДобре > 
1 2 3 4 5
  ЗАПИСИ, MP3, НОТИ Скачати безкоштовно :)

На жаль, до цієї пісні поки що немає жодного файла :(

Увага! Всі матеріали можна скачати безплатно виключно з ознайомчою метою для приватного використання! При додаванні файлів зважайте на авторські права! Щоб мати змогу додавати файли, у Вашому бровзері має бути дозволений JavaScript та відкривання нових вікон!

  ВІДЕОЗАПИСИ, КЛІПИ

На жаль, до цієї пісні поки що немає жодного кліпа :(

  ВИПРАВЛЕННЯ ТА ДОПОВНЕННЯ     ПРАВИЛА!     ДЕ СКАЧАТИ mp3 ?!
[cховати]

  Адреса цієї сторінки: https://www.pisni.org.ua/songs/85501.html

 ВХІД
Е-мейл: 
Пароль: 
  Забули пароль?
  
  ПІДПИШІТЬСЯ! ГРУПИ У СОЦМЕРЕЖАХ
FB