На головну сторінку
Дізнатися більше

Вiн Мене Не Кохає


Слова: Крихітка ЦахесМузика: Крихітка Цахес
Виконує: Крихітка Цахес  (альбом "На першому місці")
До мого пісенника: 1 2 3

 
Його подих був моїм повітрям
Його погляд мій уповільнив
В моїм серці - постріли й вістря
В моїм серці звільнено місце

Він залишив мене в пустелі
Я його любила шалено
Моїм небом була його стеля
Він тепер кохає не мене

Він Мене Не Кохає

Трохи холодно, темно, тихо
Він виходячи мене вимкнув
Залишить моє ім'я в титрах
Я, мабуть, ніколи не звикну
(що)

Він Мене Не Кохає
Поділитись сторінкою: FB
 
  ІНФОРМАЦІЯ ПРО ПІСНЮ
[cховати]

Ключові слова: Вiн Мене Не Кохає, Крихітка Цахес, На першому місці

Пісню ввела: Русинка  20.06.2005
Відредаґовано: 09.05.2010
Переглядів: 6035
  ЗАПИСИ, MP3, НОТИ Скачати безкоштовно :)

На жаль, до цієї пісні поки що немає жодного файла :(

Увага! Всі матеріали можна скачати безплатно виключно з ознайомчою метою для приватного використання! При додаванні файлів зважайте на авторські права! Щоб мати змогу додавати файли, у Вашому бровзері має бути дозволений JavaScript та відкривання нових вікон!

  ВІДЕОЗАПИСИ, КЛІПИ (1)


запис з концерту
   

  ВИПРАВЛЕННЯ ТА ДОПОВНЕННЯ     ПРАВИЛА!     ДЕ СКАЧАТИ mp3 ?!
[cховати]
6. kvety 07.10.2017 19:08    
акорди:
Cm# A F# G#
0/0

5. kvety 07.10.2017 19:06    
E||-----------|-----------|-----------|-----------|
B||-----------|-----------|-----------|-----------|
G||-----6-4---|-----9-6---|-----1-----|-----------|
D||---------6-|---------6-|-------2-1-|---4----4|
A||-4--4------|-7-7-------|-3-3-------|-6---6-6--6|
E||-----------|-----------|-----------|---------=-|
0/0

4. nacho (користувач) 08.02.2011 16:37    
ех,а ноти хтось бардак і бордель вершн може закинути?це було б чудесссно!)
+4/0

3. HAnS (користувач) 30.06.2010 19:06    
Вдогонку, це бардак-бордель
0/0

2. HAnS (користувач) 30.06.2010 19:05    
Табулатурка: вступ і перший куплет

     Q    E  E  E  E  Q       E  E  E  E  Q    E  E     E  E  E  E  E  E  E  E          
E||------------------------|-----0-------------------|--------------------------||
B||----------2--0----------|--------4--0-------------|-----------1-----1-----1--||
G||----------------1-------|----------------------2--|--1-----------------------||
D||-------------------2----|--2----------------------|-----2--------------------||
A||--4----4----------------|--------------0----0-----|--------3-----3-----3-----||
E||------------------------|-------------------------|--------------------------||
+3/0

1. Iruna (гість) 29.01.2010 15:55    
Пре мене ця пісня, так влучно)
0/0


  Адреса цієї сторінки: https://www.pisni.org.ua/songs/821575.html

 ВХІД
Е-мейл: 
Пароль: 
  Забули пароль?
  
  ПІДПИШІТЬСЯ! ГРУПИ У СОЦМЕРЕЖАХ
FB