На головну сторінку

Кохай мене


Слова: ФлітМузика: Фліт
Виконує: Фліт
До мого пісенника: 1 2 3

 
В намисті стомлених ночей
Згадаю блиск сумних твоїх очей,
В пустих обіймах самоти,
Де сліз моїх не бачиш ти,
Не покидай мене!

Мою любов украла ти,
І загубила наші скрізь сліди,
Далеко десь на чужині
З тобою всі мої думки,
Не покидай мене!
Ти кохай мене!

Невже нещасною була
Зі мною осінь і зима твоя?..
А літо, сповнене пісень,
Про тебе мріє кожен день,
Не залишай його!
Ти кохай мене!
Ти кохай мене!

Ти повернись - благаю я,
Тебе чекаю тільки я один
І місто наше теж сумне,
Таке самотнє, як і ти,
Не залишай його!
Ти кохай мене! | (5)

Мене кохай!
Ти кохай мене!
Не забувай...
Поділитись сторінкою: FB
 
  ІНФОРМАЦІЯ ПРО ПІСНЮ
[cховати]

Ключові слова: Кохай мене, Фліт
Джерело: аудіозапис

Пісню додано:  15.03.2011
Відредаґовано: 16.03.2011
Переглядів: 12182
  ДИВІТЬСЯ ТАКОЖ
[cховати]
Підбірки пісень:
Пісні про кохання, ліричні
  ЗАПИСИ, MP3, НОТИ Скачати безкоштовно :)

Дізнатися більше
На жаль, до цієї пісні поки що немає жодного файла :(

Увага! Всі матеріали можна скачати безплатно виключно з ознайомчою метою для приватного використання! При додаванні файлів зважайте на авторські права! Щоб мати змогу додавати файли, у Вашому бровзері має бути дозволений JavaScript та відкривання нових вікон!

  ВІДЕОЗАПИСИ, КЛІПИ (1)


Фліт - Кохай мене
   

  ВИПРАВЛЕННЯ ТА ДОПОВНЕННЯ     ПРАВИЛА!     ДЕ СКАЧАТИ mp3 ?!
[cховати]
5. Вова (користувач) 08.07.2012 10:01    
як на мене то має бути так:
e|---------------------------------|
B|---------------------------------|
G|-----9-------7-------4---5---4---|
D|---9---9---7---7---5---5---5---5-|
A|-7-------5-----------------------|
E|-----------------3---------------|
0/0

4. RockO (користувач) 10.03.2012 12:00    
дуже гарна пісня, дякую за табулатуру та акорди, допомогло=)
0/0

3. SergiyUKR (користувач) 03.05.2011 18:24    
наплутав трішки...мало бути так:
e|---------------------------------|
B|---------------------------------|
G|-----9-------7-------4-------4---|
D|---9---9---7---7---5---5---5---5-|
A|-7-------5-----------------------|
E|-----------------3-------3-------|
+1/0

2. SergiyUKR (користувач) 03.05.2011 16:58    
e|---------------------------------|
B|---------------------------------|
G|-----9-------7-------5-------5---|
D|---9---9---7---7---5---5---5---5-|
A|-7-------5-----------------------|
E|-----------------3-------3-------|
0/-1

1. Valar (член клубу) 28.03.2011 18:58    
Акорди: Em D G
+2/0


  Адреса цієї сторінки: https://www.pisni.org.ua/songs/4203333.html

 ВХІД
Е-мейл: 
Пароль: 
  Забули пароль?
  
  ПІДПИШІТЬСЯ! ГРУПИ У СОЦМЕРЕЖАХ
FB