На головну сторінку

Гей, Джо!


Слова: Василь ГонтарськийМузика: Jimmi Hendrix
Обробка слів, переклад: Вася клабОбробка мелодії:
Виконує: Вася Club
До мого пісенника: 1 2 3

 
C         G   D              A
   Гей, Джо! Що на своїй спині
           E
   коник твій везе?

Гей, Джо! З його очей синіх
смерть повзе-повзе.
Гей, Джо! Чи не жінку твою
коник той везе?
Гей, Джо! Чи не мертву жінку
коник той везе?
Гей, Джо! Люди кажуть різне.
Але ж ти кохав!
Гей, Джо! Кров - то не водиця.
Але ж звідки знав?
Гей, Джо! Я старий, я бачу,
що зробив ти, Джо!
Гей, Джо! Як тепер ся маєш?
Кажи правду, Джо!
Гей, Джо! Лихо, лихо скоїв!
Що то буде, Джо?
Гей, Джо! Зраду заспокоїв.
Взявсь за зброю, Джо!
Гей, Джо! Цвинтар ще далеко.
Чого плачеш, Джо?
Гей, Джо! Проліта лелека.
Буде спека, Джо.
Гей, Джо! Лихо, лихо скоїв!
Що то буде, Джо?


*
Основна мелодія:
Guitar (basic theme tabs by bohdanko (bohdanko@epost.com.ua))
                  C                      G
E||------------|----------------------|----------------------|
B||------------|------------1---------|-----------------0----|
G||------------|-----------------0----|------------0---------|
D||------------|-------2--------------|-------0--------------|
A||--0----2----|--3-------------------|----------------------|
E||------------|----------------------|--3-------------------|


  D                      A                      E
-----------------2----|----------------------|----------------------|
------------3---------|-----------------2----|----------------------|
-------2--------------|------------2---------|--1------1-x-----1----|
--0-------------------|-------2--------------|--2------2-x-----2----|
----------------------|--0-------------------|--2------2-2-----2----|
----------------------|----------------------|--0------0-0-----0----|


  E                    E                      E            E
--------------------|----------------------|-----------||----------------------|
--------------------|----------------------|-----------||----------------------|
--------------------|--1------1-x-----1----|----------*||--1------1-x-----1----|
--------------------|--2------2-x-----2----|----------*||--2------2-x-----2----|
--------------------|--2------2-2-----2----|-----------||--2------2-2-----2----|
----------3----3----|--0------0-0-----0----|-----------||--0------0-0-----0----|


  E                     E                      E
---------------------|----------------------|----------||
---------------------|----------------------|----------||
---------------------|--1------1-x-----1----|----------||
---------------------|--2------2-x-----2----|----------||
---------------------|--2------2-2-----2----|----------||
----------3h-0h-3~---|--0------0-0-----0----|----------||
Поділитись сторінкою: FB
 
  ІНФОРМАЦІЯ ПРО ПІСНЮ
[cховати]

Ключові слова: Гей, Джо!, Василь Гонтарський, Jimmi Hendrix, Вася Club
Джерело: записано на слух з аудіо- Вася Club. "Хіпан"

Пісню ввів: bohdanko  04.10.2004
Відредаґовано: 20.08.2014
Переглядів: 5267
  ВАША ДУМКА ТА ПОБАЖАННЯ
[cховати]
Якість підбору акордів
Оцінка: 4.82  Голосів: 22
 < ПоганоДобре > 
1 2 3 4 5
  ЗАПИСИ, MP3, НОТИ Скачати безкоштовно :)

На жаль, до цієї пісні поки що немає жодного файла :(

Увага! Всі матеріали можна скачати безплатно виключно з ознайомчою метою для приватного використання! При додаванні файлів зважайте на авторські права! Щоб мати змогу додавати файли, у Вашому бровзері має бути дозволений JavaScript та відкривання нових вікон!

  ВІДЕОЗАПИСИ, КЛІПИ (1)


   

  ВИПРАВЛЕННЯ ТА ДОПОВНЕННЯ     ПРАВИЛА!     ДЕ СКАЧАТИ mp3 ?!
[cховати]
3. Андрій (гість) 10.03.2009 09:57    
Який в біса хамер? Тут все добре написано. Чи може, пул оф)?
До речі, пісня ця - Боба Ділана, переспівана Хендриксом
0/0

2. Crazy Bobik (гість) 18.12.2007 23:04    
3h-0h-3~

Це хамер на 3тю, потім відкрита, хамер 3 чи що?
0/0

1. DaBaG ::Чугайстр (член клубу) 08.03.2006 00:06    
Або в мене аж надто криві пальці, або існує кращий варіант табулатури. Я спробую такий запропонувати.
1|----------------------------------------------
2|---------------?-------?-------?--------------
3|-------------?-------?-------?-----1-1-1-1-1-1
4|-----------?-------?-------?-------2-2-2-2-2-2
5|-0-2-3-3-2-------5-------4---------2-2-2-2-2-2
6|-----------------------------------0-0-0-0-0-0


там де знаки питання я не зміг підібрати звуки а тому смикаю за відкриті струни. відгукніться хтось хто має про підбір нот хоч якесь уявлення.
0/0


  Адреса цієї сторінки: https://www.pisni.org.ua/songs/213961.html

 ВХІД
Е-мейл: 
Пароль: 
  Забули пароль?
  
  ПІДПИШІТЬСЯ! ГРУПИ У СОЦМЕРЕЖАХ
FB