На головну сторінку

Ми будемо разом


Виконує: Карна
До мого пісенника: 1 2 3

 
Мене лякають сни маленьких мрій твоїх,
Крізь руки бачу сміх, я безпорадний.
Твоїх яскравих зірок я втратив погляд думок,
Ця ніч настане знову, і я тікаю.

Пр.
Я бачу небо в тобі, я знаю тільки в мені
Ми будемо разом у сні!

Моя кімната пустіє кожен день, і тоді
Я прокляв цілий світ, я безпорадний.
Мене лякають сни маленьких мрій твоїх,
Ця ніч настала знову і я тікаю...
Поділитись сторінкою: FB
 
  ІНФОРМАЦІЯ ПРО ПІСНЮ
[cховати]

Ключові слова: Ми будемо разом, Карна
Джерело: http://www.karna.com.ua/lyrics/lyrics.htm

Пісню ввела: Крапля  29.11.2005
Відредаґовано: 25.02.2010
Переглядів: 6239
  ЗАПИСИ, MP3, НОТИ Скачати безкоштовно :)

На жаль, до цієї пісні поки що немає жодного файла :(

Увага! Всі матеріали можна скачати безплатно виключно з ознайомчою метою для приватного використання! При додаванні файлів зважайте на авторські права! Щоб мати змогу додавати файли, у Вашому бровзері має бути дозволений JavaScript та відкривання нових вікон!

  ВІДЕОЗАПИСИ, КЛІПИ

На жаль, до цієї пісні поки що немає жодного кліпа :(

  ВИПРАВЛЕННЯ ТА ДОПОВНЕННЯ     ПРАВИЛА!     ДЕ СКАЧАТИ mp3 ?!
[cховати]
2. adramelech (гість) 20.06.2008 21:36    
Tuned down 2 half tones.
6-s string drop tuned - 4 half tones

1-D
2-A
3-F
4-C
5-G
6-C


intro&verse1
(play with light drive)
--------------------------------------------------------------
--------------------------------------------------------------
--------------------------------------------------------------
-----4-6-7---------4-6-7---------4-6-7---------4-6------- (x3)
---0-------0-----4-------4-----0-------0-----4-----7---7--
-0----0------0-4----4------4-0----0------0-4----4----4---

bridge
(play muted 8-th notes)
----------------------------------------------------------
----------------------------------------------------------
----------------------------------------------------------
-4-------------------------------------------------------- (x15)
-4--------------------------------------------------------
-4--------------------------------------------------------

chorus
(play with high drive)
-------------------------------------------------------------
---------------------------7-7-7-7-------------------------
---------------------------6-6-6-6-------------------------
---------------------4--4--4-4-4-4------------------------ (x4)
-----------------5f--4--4--4-4-4-4------------------------
-0-0-0-5f--0-0-0-----4--4---------------------------------

solo
(play with high drive, wah pedal & long delay)
---------------------------------5---9-------------------
------------------------------7---------------------------
-6-6-6/7-6--6-6/7-18t/6--6-6/7-2--------------------
----------------------------------------------------------
----------------------------------------------------------
----------------------------------------------------------
0/0

1. Abaddon (користувач) 01.11.2006 21:59    
http://infostore.org/info/2056461

Табулатура!
0/0


  Адреса цієї сторінки: https://www.pisni.org.ua/songs/130622.html

 ВХІД
Е-мейл: 
Пароль: 
  Забули пароль?
  
  ПІДПИШІТЬСЯ! ГРУПИ У СОЦМЕРЕЖАХ
FB