На головну сторінку

Така, як ти


Слова: Святослав ВакарчукМузика: Океан Ельзи
Виконує: Океан Ельзи  (альбом "Вночі")
До мого пісенника: 1 2 3

 
Вступ
     E  E  E  E  E  E  E  E  E  E  E  E
E||-----------1--L--------3--L--1--L--L--|
B||--------3--------3--L-----3--------3--|
G||-----2--------2-----2-----------2-----|

D||--0-----------------------------------|
A||--------------------------------------|
E||--------------------------------------|


  E  E  E  E  E  E  E  E  E  E  E  E     E  E  E  E  E  E  E  E  E  E  E  E
-----------1--L--------3--L--1--L--L--|-----------1-----L-----------0-----L--|
--------3--------3--L-----3--------3--|--------3--------3-----L--3--------3--|
-----2--------2-----2-----------2-----|-----2--------2--------2--------2-----|
--0-----------------------------------|--0-----------------0-----------------|
--------------------------------------|--------------------------------------|
--------------------------------------|--------------------------------------|


  E  E  E  E  E  E  E  E  E  E  E  E
-----------1-----L-----------0-----L--|
--------3--------3--------3--------3--|
--0-----------------0-----------------|
--------------------------------------|
--------------------------------------|

Dm
Чи знаєш ти,
Gm                F              Gm
Як сильно в душу б'є безжальний дощ?
Gm                                A
Так, ніби він завжди чекав лише мене.
Dm            Gm       F            Gm
А, як болить зимовий спокій нашого вікна
Gm                                     A
Ніжно пастельний, як і твій улюблений Моне.


Приспів:

Dm
Така, як ти
Gm     C            F
Буває раз на все життя,
         A
І то із неба.
Dm
Така, як ти
Gm        C            F
Один лиш раз на все життя,
A#
Не вистачає каяття,
C     G   F A Dm
Коли без тебе я.


Забути все, здається, я б ніколи не зумів,
Новий дзвінок скидає відлік волі на нулі
І погляд твій, він вартий більше, ніж мільйони слів
Вічно далеких, як і твій улюблений Далі.

Приспів.
Поділитись сторінкою: FB
 
  ІНФОРМАЦІЯ ПРО ПІСНЮ
[cховати]

Ключові слова: Така, як ти, Святослав Вакарчук, Океан Ельзи, Вночі
Джерело: аудіозапис

Пісню ввів: Роман  08.12.2008
Відредаґовано: 06.09.2015
Переглядів: 206401
  ВАША ДУМКА ТА ПОБАЖАННЯ
[cховати]
Якість підбору акордів
Оцінка: 3.93  Голосів: 789
 < ПоганоДобре > 
1 2 3 4 5
  ЗАПИСИ, MP3, НОТИ (3) Скачати безкоштовно :)

ВмістФорматОписРозмір, кб#
 Guitar Pro Напевно найкращий підбір цієї пісні
Джерело: http://www.gtp-tabs.ru/tabs/okean_elzi/55069-taka_jak_ti.html
ввів: Вова 05.07.2012
18165
 Guitar Pro Табулатура
Джерело: десь в коментах до пісні було
ввів: Ігор4ик 19.04.2011
7641
 Guitar Pro Табулатура. Інша версія
Джерело: http://vk.com/id22335802
ввів: BalTaZaR 27.02.2012
19148


Увага! Всі матеріали можна скачати безплатно виключно з ознайомчою метою для приватного використання! При додаванні файлів зважайте на авторські права! Щоб мати змогу додавати файли, у Вашому бровзері має бути дозволений JavaScript та відкривання нових вікон!

  ВІДЕОЗАПИСИ, КЛІПИ (2)



Відеоурок від sviato
  

  ВИПРАВЛЕННЯ ТА ДОПОВНЕННЯ     ПРАВИЛА!     ДЕ СКАЧАТИ mp3 ?!
[cховати]
55. sviato (користувач) 04.12.2014 11:59    
Зробив мегадетальний розбір "Така як ти" з табулатурою
Лінк на відео - http://youtu.be/FGIdNgweIK4
Також є інші пісні ОЕ! Підписуйтесь та замовляйте пісні)))
Приємного перегляду!
0/0

54. romik_val (користувач) 28.12.2012 22:04    
Дістав повні таби цієї пісеньки, кому треба можу скинути GTP чи звичайні
0/0

53. romik_val (користувач) 24.07.2012 22:57    
Поясніть будь ласка що означає
e|-7-----------8h7-----5-------8-8---------8-8-----------|
B|-8------8--------8-----7-----7----7------7--7----------|
G|-7---7---7---------7-----5---7-----7-----7---7---------|
D|------------------------------------0---------0--------|
A|-------------------------------------------------------|
E|-------------------------------------------------------|

Буква h означає хамерон, нприклад 8h7 означає, що тобі треба підчіпитиструну медіатором на 8 ладі і різко зажати її на 7-му щоб утворився характерний звук.
0/0

52. romik_val (користувач) 24.07.2012 14:33    
Илья, повіністю з тобою згідний, а на яких акордах ти граєш цю пісню?
0/0

51. Анатолий (гість) 08.12.2011 19:44    
Балдею от песни. Балдею от вашей мовы. Завидую вам, хохлы. Ради ТАКОЙ РОДИНЫ и мовы, как ВАША и умереть не страшно. Любите свою Родину. СУПЕР!!! А Океан ваш класс!!! Надо бы им с Ляписом вместе сообразить что-нибудь.
Беларусь
0/0

50. Виктория (гість) 25.10.2011 16:06    
не підскажите як грати правою рукою пісню Така як ти?
0/0

49. Илья (гість) 25.10.2011 13:07    
Все таки думаю должен быть так проигрыш в начале песни


  Dm       Dsus4 Dm   
E||-----1-----3---1---|
B||---3--3---------3--|
G||-2------2----------|
D||0------------------|
A||-------------------|
E||-------------------|



  Dm        Dsus4  Dm  
E||-----1-----3-- 1---|
B||---3---3--------3--|
G||-2------2----------|
D||0------------------|
A||-------------------|
E||-------------------|

  Dm       
E||----1--------1--------1---------0--|
B||--3--3------3--3----3--3------3---3|
G||-2--------2--------2--------2------|
D||0-------0--------0--------0--------|
A||-----------------------------------|
E||-----------------------------------|
+1/0

48. Olegman (гість) 08.07.2011 01:53    
Вакарчук – Така, як ти

Transcribed by Olegman (leja1982@mail.ru)

Intro:
   Dm       Dsus4 Dm   Dm         Dsus4 Dm
E||-----1-----3---1----|-----1------3----1----|
H||---3--3------3---3--|---3---3------3----3--|
G||-2------2----------2|-2------2------------2|
D||0--------0----------|0--------0------------|
   Dm                   Dm         Dsus2
E||-----1---------1----|------1-----------0----|
H||---3---3-----3---3--|----3---3-------3---3--|
G||-2-------2--2------2|--2-------2---2-------2|
D||0----------0--------|0-----------0----------|

Dm                              Gm
Чи знаєш ти, як сильно в душу б’є безжальний дощ,
Gm                 A#         A
Так, ніби він завжди чекав лише мене.
Dm                              Gm
А як болить зимовий спокій нашого вікна,
Gm                            A#         A
Ніжно-пастельний, як і твій улюблений Моне.

ПРИСПІВ
Dm          Gm      C             F         
Така, як ти, буває раз на все життя,
A#       A
І то із неба.
Dm          Gm         C             F         
Така, як ти, один лиш раз на все життя,
A#                     C#-C--H-A#-Dm  (***) 
Не вистачає каяття, коли без тебе я.

(***)
Коли без те-бе   я...   
E||------------|------------|
H||------------|Dm----------|
G||6--5--4--3--|------------|
D||------------|------------|

Забути все, здається, я б ніколи не зумів,
Новий дзвінок скидає відлік волі на нулі.
І погляд твій, він вартий більше, ніж мільйони слів,
Вічно-далеких, як і твій улюблений Далі.
0/0

47. Анатолий (гість) 13.05.2011 07:17    
Вітаю,
Будьте ласкаві, пришліть і мені по пошті табулатуру gtp5 цієї пісні.
Буду щиро вдячний за це!
anatolii.md@gmail.com
0/0

46. Ігор4ик (член клубу) 19.04.2011 21:03    
переведено з gpx в gp5 - скачати
http://www.pisni.org.ua/dnrd.php?fid=12412
+1/0

45. lipas (гість) 14.11.2010 20:54    
Закиньте версию gp5
0/0

44. kostyan (гість) 16.10.2010 13:48    
скиньте табы gp5 на мыло kostyan_sv@ukr.net.
PLEASE!
0/0

43. Ігор (гість) 01.10.2010 20:17    
А що означає літера "L"?
0/0

42. Beket (гість) 10.09.2010 01:57    
snipbeket@mail.ru
0/0

41. Beket (гість) 09.09.2010 10:57    
Ось додав свій варіант цієї пісні. Формат gpx відкриваємо за допомогою Guitar Pro 6. Кому сподобається, шліть мені на пошту красиві пісні і я можу зробити підбір.

http://filebeam.com/83b002478a7ddc42474736f5f8b81daf
-1/0

40. Zorro 01.08.2010 23:57    
я в розпачі, хочу зіграти цю пісню для дівчини, в яку закозаний, та в мене не виходить, щось в цих табулатурах не те...Шановні люди, допоможіть, скиньте будь ласка на zorro5678@mail.ru табулатуру в GTP, сильно прошу...

webmaster: всі табулатури розміщаємо на сайті
0/-1

39. Андрій (гість) 01.08.2010 23:52    
Шановні люди, скиньте мені будь ласка на почту(zorro5678@mail.ru) табулатуру в GTP, я хочу її зіграти для дівчини в яку закоханий. Намагаюсь грати як тут хтось написав, за що дуже вдячний, але що там не так, щось в мене не клеїться, я дуже розчарувався. Прошу...

webmaster: всі табулатури розміщаємо на сайті
0/0

38. lipas (гість) 16.06.2010 11:46    
хтось може написати GTP цієї пісні lipas1@yandex.ru
0/0

37. the_bmx (користувач) 14.06.2010 17:34    
якщо на мейл не даєте, то закиньте на сайт.
0/0

36. the_bmx (користувач) 14.06.2010 17:33    
the_bmx@mail.ru
мій мейл
0/0

35. the_bmx (користувач) 14.06.2010 17:32    
скиньте й менв будь ласка таб на мейл.
0/0

34. Юра (гість) 08.06.2010 18:16    
Поясніть будь ласка що означає
e|-7-----------8h7-----5-------8-8---------8-8-----------|
B|-8------8--------8-----7-----7----7------7--7----------|
G|-7---7---7---------7-----5---7-----7-----7---7---------|
D|------------------------------------0---------0--------|
A|-------------------------------------------------------|
E|-------------------------------------------------------|
0/0

33. webmaster (модератор) 20.05.2010 18:38    
...все розміщаємо на сайті, а не "даємо на мейл"...
0/0

32. Віталій (гість) 20.05.2010 16:06    
дайте будь ласка таби guitar pro на meloman1994@mail.ru
дякую...
0/0

31. Ян (гість) 15.05.2010 21:06    
Сбросьте пожалуйста ГТП на j-ladin@rambler.ru Зараннее спасибо!
0/0

30. Олег (гість) 12.05.2010 12:24    
Закинь будь ласка ГТП на мій є-мейл...

borgir.zt@gmail.com
0/0

29. Олег (гість) 12.05.2010 12:23    
Закинь будь ласка ГТП на мій є-мейл...
0/0

28. Vladimir (гість) 09.05.2010 19:58    
Вышлите пожалйста ГТП на vvg@inbox.ru, заранее очень благодарен
0/0

27. Ximik (гість) 30.04.2010 02:53    
Модератори, якщо можна вирівняйте... Я не вмію...
+6-6-5-1-3-2-5-6-6/8-5--3-3-2-------3
+7-7-5-2-0-----7-7---5--0-3-0-5-4-3-2
+0-5-5-3-------0-5---5----0-2-4-3-2-0
+----3---0-0-4-------3--0---0--------
+-------------------------3----------

2 куплет відрізн. проіграшом
+------------0-1-3-5-6-5--
+---------2-3-------------
+----0-2-3----------------
+-2-3------------------0--
+-------------------------
+-------------------------
0/0

26. Ximik (гість) 30.04.2010 02:43    
Підібрав повністю.
Таби писати влом.
Зараз накину осн. акорди. Слухайте перебір в пісні
+1-3-1-0-3-0-3\0-5---5-6-5-3-3-0-3\0-5
+3-3-3-3-3-3-2---5---6-8-6-3-3-3-2---5
+2-3-2-3-3-3-2---6---7-7-7-3-3-3-2---6
+0-0-0-2-0-2-2---7---0-0-0-2-0-2-2---7
+------------0---0-------------------0
+--------0-------------------0---0----
приспів
+0-----0-0-3-5-0------5-0-0---------1
+6-6-5-1-3-2-5-6-6/8-5--3-3-2-------3
+7-7-5-2-0-----7-7---5--0-3-0-5-4-3-2
+0-5-5-3-------0-5---5----0-2-4-3-2-0
+----3---0-0-4-------3--0---0--------
+-------------------------3----------

2 куплет відрізн. проіграшом
+------------0-1-3-5-6-5--
+---------2-3-------------
+----0-2-3----------------
+-2-3------------------0--
+-------------------------
+-------------------------
0/0

25. Ігор (гість) 29.04.2010 22:23    
І мені будласка гтп)
jasonnewsted2@rambler.ru
0/0

24. Irynka (користувач) 25.04.2010 22:30    
приєднуюсь до питання про ноти для скрипки.
ях, яка там партія в скрипки! Краща навіть за слова - сльози навертаються!
0/0

23. Михайло (гість) 16.04.2010 15:56    
MBentefor! Зкинь будь-ласка табу на mixa100288@gmail.com
Дуже хочу навчитися грати цю тему!
0/0

22. Артем (гість) 04.04.2010 01:34    
MBentefor, відправ, будь ласка, gtp таби на legolasdreams@gmail.com
Щиро дякую.
0/0

21. Жентос (гість) 22.03.2010 11:58    
Я короче понял как играть соляк!!! Кто-нибудь играл Арию - ОСКОЛОК ЛЬДА??? Вот соло (перебором) одно и тоже! Только аккордами этими! Удачи, ребят!!!
0/0

20. MegaProts (користувач) 12.03.2010 17:55    
MBentefor, якщо можна, то скинь і мені табу Вакарчука - Така як ти
kivertsi@gmail.com
0/0

19. denisko (користувач) 27.02.2010 22:13    
скинте плиз табы на unreal1987@gmail.com
0/0

18. Виталий (гість) 13.01.2010 20:59    
Будьте добры, пришлите табы на электронный адрес - vitalytkach@yandex.ru
песня просто безупречная как по музыке, так и по смыслу. Кстати, на эту музыку сделал видео для своей девушки - море слез счастья.
0/0

17. Шура (гість) 05.01.2010 15:35    
MBentefor - скинь,будь-ласка, ще мені підбір в гітор про на Shurka7747@rambler.ru
0/0

16. Ромкойод 25.12.2009 12:28    
Люди, у когось є ноти для скрипки для цієї пісні? там така експресивна, шо тільки скрипка це може передати!!! в мене є така класна ідея, запросити Вакарчука в наш універ і зіграти разом з ним.
якшо хтось може мені помогти з нотами, то, прошу, скиньте на romkoiod@bell.net
дякую щиро!
+1/0

15. slinkon (гість) 11.12.2009 14:16    
MBentefor будь ласка дай свій емейл, а бо відішли файл на мою адресу slinkon@ukr.net
0/0

14. Олесь (користувач) 31.08.2009 12:22    
кгем.... а що в табах та буквочка L означає?? хто знає??
0/0

13. Сергей (гість) 20.08.2009 20:31    
а что в табулатуре означает загадочная "L" и если это определённый способ как нужно играть или может зажимать или может скользить... опишите плиз
0/0

12. MBentefor (член клубу) 18.08.2009 22:44    
таби троха коряві. кому тре якісниц підбір окремих куснів в гітар про (+вступ) - пишіть в мейл.
+1/0

11. Сашко (гість) 15.04.2009 14:18    
Поясныть бульласка що таке L
0/0

10. ВУРЧИК (гість) 23.03.2009 19:55    
підскажіть будь ласка що означає літера L
0/0

9. vvs (член клубу) 14.03.2009 23:41    
Щось тільки при завантаженні таби трошки змістились=(((
0/0

8. vvs (член клубу) 14.03.2009 23:36    
Вступ
     E  E  E  E  E  E  E  E  E  E  E  E   
E||-----------1--L--------3--L--1--L--L--|
B||--------3--------3--L-----3--------3--|
G||-----2--------2-----2-----------2-----|
D||--0-----------------------------------|
A||--------------------------------------|
E||--------------------------------------|


  E  E  E  E  E  E  E  E  E  E  E  E     E  E  E  E  E  E  E  E  E  E  E  E   
-----------1--L--------3--L--1--L--L--|-----------1-----L-----------0-----L--|
--------3--------3--L-----3--------3--|--------3--------3-----L--3--------3--|
-----2--------2-----2-----------2-----|-----2--------2--------2--------2-----|
--0-----------------------------------|--0-----------------0-----------------|
--------------------------------------|--------------------------------------|
--------------------------------------|--------------------------------------|

                                       
  E  E  E  E  E  E  E  E  E  E  E  E     
-----------1-----L-----------0-----L--|
--------3--------3--------3--------3--|
--0-----------------0-----------------|
--------------------------------------|
--------------------------------------|
0/0

7. vvs (член клубу) 14.03.2009 23:35    
Вступ
     E  E  E  E  E  E  E  E  E  E  E  E   
E||-----------1--L--------3--L--1--L--L--|
B||--------3--------3--L-----3--------3--|
G||-----2--------2-----2-----------2-----|
D||--0-----------------------------------|
A||--------------------------------------|
E||--------------------------------------|


  E  E  E  E  E  E  E  E  E  E  E  E     E  E  E  E  E  E  E  E  E  E  E  E   
-----------1--L--------3--L--1--L--L--|-----------1-----L-----------0-----L--|
--------3--------3--L-----3--------3--|--------3--------3-----L--3--------3--|
-----2--------2-----2-----------2-----|-----2--------2--------2--------2-----|
--0-----------------------------------|--0-----------------0-----------------|
--------------------------------------|--------------------------------------|
--------------------------------------|--------------------------------------|

                                       Куплет
  E  E  E  E  E  E  E  E  E  E  E  E     E  E  E  E  E  E  E  E  E  E  E  E   
-----------1-----L-----------0-----L--|-----------1-----L-----------0-----L-...
--------3--------3--------3--------3--|--------3--------3-----L--3--------3-...
--0-----------------0-----------------|--0-----------------0----------------...
--------------------------------------|-------------------------------------...
--------------------------------------|-------------------------------------...
0/0

6. Роман (користувач) 18.02.2009 10:04    
Спробував підібрати акорди до цієї суперової пісні.

webmaster: акорди додано до пісні.
0/0

5. Андрій (гість) 17.02.2009 14:37    
Дорогі модератори, табів тільки не хватає... Були б таби, ціни сайту не було б))
+1/0

4. Бодя (гість) 29.01.2009 16:12    
в куплете : Dm, Gm, C
в припеве : Dm, Gm,C, A
0/0

3. Яся (гість) 20.01.2009 16:45    
Акорди дуже прості, але на гітарі грати погано... Риф не пишу а акорди:
Em Am H7 так уся пісня, в приспіві повторюється Em H7

але звучить досить погано
0/0

2. Кирило (гість) 13.01.2009 21:15    
А ще краще б ноти або всю партітуру... Почекаємо місяць, потім десь знайдеться все, що шукаємо.
0/0

1. ВЛАД (гість) 08.01.2009 05:12    
Ех, якби ще й акорди були..!(((
0/0


  Адреса цієї сторінки: https://www.pisni.org.ua/songs/888474.html

 ВХІД
Е-мейл: 
Пароль: 
  Забули пароль?
  
  ПІДПИШІТЬСЯ! ГРУПИ У СОЦМЕРЕЖАХ
FB