На головну сторінку
Дізнатися більше

Етюд


Слова: Святослав ВакарчукМузика: Святослав Вакарчук
Виконує: Океан Ельзи  (альбом "Янанебібув")
До мого пісенника: 1 2 3

 
        Intro: Hm

Hm    F           Hm
Знаєш, я хотiв би знати,
F               Hm
Спати, чи пiти додому
F              Hm
Або випити на кухнi
F       Hm
Соку з льодом

Bass:

A||---------4-2--|---------------|
A||---2-4-5------|---2-4-5-7-4---|
E||-2------------|-2-------------|

Може, я не хочу пити,
Жити, значить нiби бути.
Бути - значить майже жити
Може бути.

Пляма на стiнi вiд тебе
З неба. опустили землю
Темно, але неприємно
Досить. Певно.

Темно. I мене заносить.
Значить... досить...
Поділитись сторінкою: FB
 
  ІНФОРМАЦІЯ ПРО ПІСНЮ
[cховати]

Ключові слова: Етюд, Святослав Вакарчук, Океан Ельзи, Янанебібув
Підбір акордів: Ксьонз
Джерело: "tviй формат", "Янанебібув"

Примітки: Океан Ельзи, у "Янанебібув" останні рядки: "Темно. I мене заносить.
Значить..."


Пісню ввів: Ксьондз  30.03.2005
Відредаґовано: 02.12.2014
Переглядів: 7204
  ДИВІТЬСЯ ТАКОЖ
[cховати]
Інші варіянти цієї пісні
НазваСлова / МузикаA Файли  #
 Етюд *
 (табулатура)
С. Вакарчук / С. Вакарчук+ 853
 Аби побачити пояснення малюнків у колонці "Файли", підведіть курсор мишки до малюнка.      
Підбірки пісень:
Філософські пісні
Пісні з ностальгічними мотивами
  ВАША ДУМКА ТА ПОБАЖАННЯ
[cховати]
Якість підбору акордів
Оцінка: 2.68  Голосів: 19
 < ПоганоДобре > 
1 2 3 4 5
  ЗАПИСИ, MP3, НОТИ Скачати безкоштовно :)

Увага! Пісня присутня на сайті у кількох варіантах, у них теж можуть бути записи та ноти!
Переглянути варіанти >>
На жаль, до цієї пісні поки що немає жодного файла :(

Увага! Всі матеріали можна скачати безплатно виключно з ознайомчою метою для приватного використання! При додаванні файлів зважайте на авторські права! Щоб мати змогу додавати файли, у Вашому бровзері має бути дозволений JavaScript та відкривання нових вікон!

  ВІДЕОЗАПИСИ, КЛІПИ (1)

Увага! Пісня присутня на сайті у кількох варіантах, у них теж можуть бути додані відеокліпи!
Переглянути варіанти >>

   

  ВИПРАВЛЕННЯ ТА ДОПОВНЕННЯ     ПРАВИЛА!     ДЕ СКАЧАТИ mp3 ?!
[cховати]
7. vvs (член клубу) 14.03.2009 23:53    
Далі все повторюеться починаючи з 3 такту.
P.S. Повідомлення читати з починаючи з нижнього=)))
0/0

6. vvs (член клубу) 14.03.2009 23:50    
  E.  S E  E   H           E.  S E  E   H           E.  S E  E  H         
------2----2---L--------|------2----2---L--------|-----------------------|
------3----2h--3--------|------3----2h--3--------|-----------------------|
------4----4---L--------|------4----4---L--------|------3-------3--------|
------4-----------------|------4-----------------|------4-------4--------|
--2---------------------|--2---------------------|------4-------4--------|
------------------------|------------------------|--2--------2-----------|


  E  E  E  E  E  E  Q       E.  S E  E   H           E.  S E  E   H         
-----2-------------------|------2----2---L--------|------2----2---L--------|
--------2----------------|------3----2h--3--------|------3----2h--3--------|
--L--------3-------------|------4----4---L--------|------4----4---L--------|
--L-----------4----------|------4-----------------|------4-----------------|
--L--------------4-------|--2---------------------|--2---------------------|
--L-----------------2----|------------------------|------------------------|
0/0

5. vvs (член клубу) 14.03.2009 23:49    
  E.  S E  E   H           E.  S E  E   H           E.  S E  E   H         
------3----3---L--------|------3----3---L--------|------2----2---L--------|
------5----4s--5--------|------5----4s--5--------|------3----2h--3--------|
------4-----------------|------4-----------------|------4----4---L--------|
------------------------|------------------------|------4-----------------|
--4---------------------|--4---------------------|--2---------------------|
------------------------|------------------------|------------------------|


  E.  S E  E   H           E.  S E  E  H           E.  S E  E  H         
------2----2---L--------|-----------------------|-----------------------|
------3----2h--3--------|-----------------------|-----------------------|
------4----4---L--------|------3-------3--------|------3-------3--------|
------4-----------------|------4-------4--------|------4-------4--------|
--2---------------------|------4-------4--------|------4-------4--------|
------------------------|--2--------2-----------|--2--------2-----------|
0/0

4. vvs (член клубу) 14.03.2009 23:48    
продовження
0/0

3. vvs (член клубу) 14.03.2009 23:47    
     E.  S E  E   H           E.  S E  E   H           E.  S E  E   H         
E||------2----2---L--------|------2----2---L--------|------2----2---L--------|
B||------3----2h--3--------|------3----2h--3--------|------3----2h--3--------|
G||------4----4---L--------|------4----4---L--------|------4----4---L--------|
D||------4-----------------|------4-----------------|------4-----------------|
A||--2---------------------|--2---------------------|--2---------------------|
E||------------------------|------------------------|------------------------|


  E.  S E  E   H           E.  S E  E   H           E.  S E  E   H         
------2----2---L--------|------3----3---L--------|------2----2---L--------|
------3----2h--3--------|------5----4s--5--------|------3----2h--3--------|
------4----4---L--------|------4-----------------|------4----4---L--------|
------4-----------------|------------------------|------4-----------------|
--2---------------------|--4---------------------|--2---------------------|
------------------------|------------------------|------------------------|
0/0

2. maestro (гість) 15.10.2006 18:08    
Дійсно другий акорд фуфловий
0/0

1. zGollum (член клубу) 20.11.2005 23:27    
ну зовсім невірні акорди
0/0


  Адреса цієї сторінки: https://www.pisni.org.ua/songs/818256.html

 ВХІД
Е-мейл: 
Пароль: 
  Забули пароль?
  
  ПІДПИШІТЬСЯ! ГРУПИ У СОЦМЕРЕЖАХ
FB