На головну сторінку

Етюд *

табулатура

Слова: Святослав ВакарчукМузика: Святослав Вакарчук
До мого пісенника: 1 2 3

 
     E.  S E  E   H           E.  S E  E   H           E.  S E  E   H
E||------2----2---L--------|------2----2---L--------|------2----2---L--------|
B||------3----2h--3--------|------3----2h--3--------|------3----2h--3--------|
G||------4----4---L--------|------4----4---L--------|------4----4---L--------|
D||------4-----------------|------4-----------------|------4-----------------|
A||--2---------------------|--2---------------------|--2---------------------|
E||------------------------|------------------------|------------------------|


  E.  S E  E   H           E.  S E  E   H           E.  S E  E   H
------2----2---L--------||------2----2---L--------|------3----3---L--------|
------3----2h--3--------||------3----2h--3--------|------5----4s--5--------|
------4----4---L--------||------4----4---L--------|------4-----------------|
------4-----------------||------4-----------------|------------------------|
--2---------------------||--2---------------------|--4---------------------|
------------------------||------------------------|------------------------|


  E.  S E  E   H           E.  S E  E   H           E.  S E  E   H
------2----2---L--------|------3----3---L--------|------3----3---L--------|
------3----2h--3--------|------5----4s--5--------|------5----4s--5--------|
------4----4---L--------|------4-----------------|------4-----------------|
------4-----------------|------------------------|------------------------|
--2---------------------|--4---------------------|--4---------------------|
------------------------|------------------------|------------------------|


  E.  S E  E   H           E.  S E  E   H           E.  S E  E  H
------2----2---L--------|------2----2---L--------|-----------------------|
------3----2h--3--------|------3----2h--3--------|-----------------------|
------4----4---L--------|------4----4---L--------|------3-------3--------|
------4-----------------|------4-----------------|------4-------4--------|
--2---------------------|--2---------------------|------4-------4--------|
------------------------|------------------------|--2--------2-----------|


  E.  S E  E  H           E.  S E  E   H           E.  S E  E   H
-----------------------|------2----2---L--------|------2----2---L--------|
-----------------------|------3----2h--3--------|------3----2h--3--------|
------3-------3--------|------4----4---L--------|------4----4---L--------|
------4-------4--------|------4-----------------|------4-----------------|
------4-------4--------|--2---------------------|--2---------------------|
--2--------2-----------|------------------------|------------------------|


  E.  S E  E  H           E  E  E  E  E  E  Q       E.  S E  E   H
-----------------------|-----2-------------------|------2----2---L--------|
-----------------------|--------2----------------|------3----2h--3--------|
------3-------3--------|--L--------3-------------|------4----4---L--------|
------4-------4--------|--L-----------4----------|------4-----------------|
------4-------4--------|--L--------------4-------|--2---------------------|
--2--------2-----------|--L-----------------2----|------------------------|


  E.  S E  E   H
------2----2---L--------||
------3----2h--3--------||
------4----4---L--------||
------4-----------------||
--2---------------------||
------------------------||
Поділитись сторінкою: FB
 
Дізнатися більше
  ІНФОРМАЦІЯ ПРО ПІСНЮ
[cховати]

Ключові слова: Етюд 1, Святослав Вакарчук, табулатура

Пісню додано:  13.03.2009
Відредаґовано: 09.11.2013
Переглядів: 876
  ДИВІТЬСЯ ТАКОЖ
[cховати]
Інші варіянти цієї пісні
НазваСлова / МузикаA Файли  #
 Етюд (гол. варіант) С. Вакарчук / С. Вакарчук+7316
 Аби побачити пояснення малюнків у колонці "Файли", підведіть курсор мишки до малюнка.      
 
  ВАША ДУМКА ТА ПОБАЖАННЯ
[cховати]
Якість підбору акордів
Оцінка: 4.89  Голосів: 9
 < ПоганоДобре > 
1 2 3 4 5
  ЗАПИСИ, MP3, НОТИ Скачати безкоштовно :)

Увага! Пісня присутня на сайті у кількох варіантах, у них теж можуть бути записи та ноти!
Переглянути варіанти >>
На жаль, до цієї пісні поки що немає жодного файла :(

Увага! Всі матеріали можна скачати безплатно виключно з ознайомчою метою для приватного використання! При додаванні файлів зважайте на авторські права! Щоб мати змогу додавати файли, у Вашому бровзері має бути дозволений JavaScript та відкривання нових вікон!

  ВІДЕОЗАПИСИ, КЛІПИ

Увага! Пісня присутня на сайті у кількох варіантах, у них теж можуть бути додані відеокліпи!
Переглянути варіанти >>
На жаль, до цієї пісні поки що немає жодного кліпа :(

  ВИПРАВЛЕННЯ ТА ДОПОВНЕННЯ     ПРАВИЛА!     ДЕ СКАЧАТИ mp3 ?!
[cховати]

  Адреса цієї сторінки: https://www.pisni.org.ua/songs/6101593.html

 ВХІД
Е-мейл: 
Пароль: 
  Забули пароль?
  
  ПІДПИШІТЬСЯ! ГРУПИ У СОЦМЕРЕЖАХ
FB