На головну сторінку

Ти і я


Слова: Святослав ВакарчукМузика: Святослав Вакарчук
Виконує: Океан Ельзи  (альбом "Gloria")
До мого пісенника: 1 2 3

 
2|--6---x-x-6---x-x-6---6-6-6-6/9-9--|
3|--5---x-x-5---x-x-5---5-5-5-5/8-8--|
4|--3---x-x-3---x-x-3---3-3-3-3/6-6--|
5|-----------------------------------|

2|--6---x-x-6---x-x-6---6-6-6-6/4-4--|
3|--5---x-x-5---x-x-5---5-5-5-5/3-3--|
4|--3---x-x-3---x-x-3---3-3-3-3/1-1--|
5|-----------------------------------|


2|--6---x-x-6---x-x-6---6-6-6-6/9-9--|
3|--5---x-x-5---x-x-5---5-5-5-5/8-8--|
4|--3---x-x-3---x-x-3---3-3-3-3/6-6--|
5|-----------------------------------|

2|--6---x-x-6---x-x-6---------------6---|
3|--5---x-x-5---x-x-5---------------5---|
4|--3---x-x-3---x-x-3-----3h6---3---3---|
5|--------------------3h6---------6-----|

Наша осінь нам миліша, ніж чужа весна
І наша молодість сильніша, ніж чужа стіна.
Нас хотіли так назвати, щоби як у всіх,
Нас хотіли зупинити, але ми без них.

Приспів:
Ти і я ла-ла-ла-ла-ла-ла,
Ти і я. Нас океаном несе,
В ньому ми зможемо все!

Нам казали- не чекайте, всі давно вже тут,
І навіщо вам літати, всі і так живуть.
Нам казали- не вигадуйте велосипед,
Але ми уже далеко, ми ідем вперед!

Приспів.
Поділитись сторінкою: FB
 
  ІНФОРМАЦІЯ ПРО ПІСНЮ
[cховати]

Ключові слова: Ти і я, Святослав Вакарчук, Океан Ельзи, Gloria

Примітки: Табулатуру додав Oscar

Пісню ввела: viOLA  15.10.2005
Відредаґовано: 25.02.2010
Переглядів: 7511
  ЗАПИСИ, MP3, НОТИ Скачати безкоштовно :)

На жаль, до цієї пісні поки що немає жодного файла :(

Увага! Всі матеріали можна скачати безплатно виключно з ознайомчою метою для приватного використання! При додаванні файлів зважайте на авторські права! Щоб мати змогу додавати файли, у Вашому бровзері має бути дозволений JavaScript та відкривання нових вікон!

  ВІДЕОЗАПИСИ, КЛІПИ

На жаль, до цієї пісні поки що немає жодного кліпа :(

  ВИПРАВЛЕННЯ ТА ДОПОВНЕННЯ     ПРАВИЛА!     ДЕ СКАЧАТИ mp3 ?!
[cховати]
1. Макс (гість) 23.02.2007 22:27    
Океани найкраще рубають
0/0


  Адреса цієї сторінки: https://www.pisni.org.ua/songs/428481.html

 ВХІД
Е-мейл: 
Пароль: 
  Забули пароль?
  
  ПІДПИШІТЬСЯ! ГРУПИ У СОЦМЕРЕЖАХ
FB