На головну сторінку

Дівчина з Павлодару


Слова: Сергій ВасилюкМузика: Сергій Василюк
Виконує: Сергій Василюк  (альбом "Сховане обличчя")
До мого пісенника: 1 2 3

 
Під гуркіт коліс гамірного потягу
Стелились лани, летіли гаї,
Наснились мені херсонські степи,
Де влітку колись зустрілися ми.
Казала ти, що дід твій родом з України,
А це намисто заповіла прабабця...

Приспів:
Дівчина з Павлодару, дівчина з Павлодару,
Дівчина з Павлодару, сонце, як ти?..
Дівчина з Павлодару, дівчина з Павлодару,
Дівчина з Павлодару, сестро моя...

Котилась сльоза із першою піснею,
Холодна роса і спека весь день.
А в вас ковила зовсім не така, як у нас -
Казала тоді, як степом ішли.
Дзвеніла ти червоним дукачем на грудях,
Схилившись над багаттям, часом наді мною.

Приспів.

Іртиш – не Дніпро, та рідний до болю:
Там перші кроки і перша любов.
Твій дядько казав: З Холодного Яру ми всі,
А Сонце сідає над Чигирином.
Сміялась ти, що як не вернеш на Вкраїну,
Народиш сотню маленьких гайдамаків.

Приспів.

Під гуркіт коліс гамірного потягу
Летіли лани, стелились гаї,
Із дум не ішли таврійські степи
І стежки оті, де разом були...

Приспів.
Поділитись сторінкою: FB
 
  ІНФОРМАЦІЯ ПРО ПІСНЮ
[cховати]

Ключові слова: Дівчина з Павлодару, Сергій Василюк, Сховане обличчя
Джерело: аудіозапис

Пісню додано:  13.05.2011
Відредаґовано: 13.05.2011
Переглядів: 2021
  ЗАПИСИ, MP3, НОТИ Скачати безкоштовно :)

Дізнатися більше
На жаль, до цієї пісні поки що немає жодного файла :(

Увага! Всі матеріали можна скачати безплатно виключно з ознайомчою метою для приватного використання! При додаванні файлів зважайте на авторські права! Щоб мати змогу додавати файли, у Вашому бровзері має бути дозволений JavaScript та відкривання нових вікон!

  ВІДЕОЗАПИСИ, КЛІПИ (3)



Відео з концерту, присвяченого 89-ї річниці антибільшовицького повстання під проводом Костя Пестушка

Сергій Василюк_Дівчина з Павлодару
 

  ВИПРАВЛЕННЯ ТА ДОПОВНЕННЯ     ПРАВИЛА!     ДЕ СКАЧАТИ mp3 ?!
[cховати]
4. Vladislav (користувач) 20.07.2012 15:59    
Оформлення поповзло, теги на спрацювали...
Сподіваюся, щось лишилося зрозуміло...
0/0

3. Vladislav (користувач) 20.07.2012 15:57    
font style="font-family: Courier New"
Отож бо, акорди, без тексту, бо сказало "багато слів", троху з коментарями, для ясності.
На початку просто акорд Asus2: 0-0-2-2-0-0
Вступ (з барре на 7 ладі):
-----7--------7----||              -----7---------9-7-
---7-------10---7--||              ---8--------10-----
-7-----7-9--------.||              -9-----9-11--------
------------------.|| тричі, потім -------------------
-------------------||              -------------------
-------------------||              -------------------
(Причому, 11-10-9 у кінці він бере мізинцем,безіменним та середнім пальцями, при цьому вказівним продовжуючи тримати барре. 

Складно, але інакше буде криво).

I куплет:
Спершу так само як вступ (4 строки), потім (останні 2):
Em A G F#

Приспів:
Bm A Bm A Bm A Bm A
G A G A Bm A Bm A   

II куплет:
Те ж, що і перший, але обігрується як акорди, боєм.

Приспів.

III куплет:
Грається наступним чином (перші 4 строки):
------------------||            -----------------
-----0-------0----||            -----0-------0---
-----------------.||            -----------------
---4---4---2---4-.||  а у кінці ---2---2---4---4-
-2-------0--------||            -----------------
------------------||            -0-------2-------
У кінці (2 строки) - так само, як попередній, але бій троху інакший.

Приспів.

IV куплет 
Так само як вступ, або перший куплет

Приспів.
/font
+1/0

2. Вова (користувач) 22.06.2012 17:08    
акорди:
Hm (баре на 7-му ладу)
Em (баре на 7-му ладу)
F#m (баре на 9-му ладу)

--7-- --7-- --9--
--7-- --8-- --10--
--7-- --9-- --11--
--9-- --9-- --11--
--9-- --7-- --9--
--7-- --7-- --9--
потім на звичайних акордах
Hm Em F#m
0/-1

1. Вова (користувач) 22.06.2012 16:49    
таби та початку:

-----7-------7-------7-------7---
---7---7---8---8---7---7---8---8-
-7-------9-------7-------9-------
---------------------------------
---------------------------------
---------------------------------

-----7-------7-------7---------9----
---7---7---8---8---7---7----10---10-
-7-------9-------7-------11---------
------------------------------------
------------------------------------
------------------------------------
0/0


  Адреса цієї сторінки: https://www.pisni.org.ua/songs/4208930.html

 ВХІД
Е-мейл: 
Пароль: 
  Забули пароль?
  
  ПІДПИШІТЬСЯ! ГРУПИ У СОЦМЕРЕЖАХ
FB