На головну сторінку
Дізнатися більше

Ярема *


Українська народна пісня
Виконує: Веселка  (альбом "Веселка")
До мого пісенника: 1 2 3

 
Оце я родився літком на зорі,
Кутні були люди й родичі мої.
Кумів наскликали, в церкву одвели
І ім'я Ярема мені надали

Приспів (2):
Оце, Ярема, оце, оце уха-ха,
Оце я Ярема, мудра голова.

Став я підростати, до школи ходить,
Став мені учитель таке говорить:
У тебе, Яремо, мудра голова,
Одна біда тільки,  - олію нема.

Приспів.

Став я підростати і парубком став,
Оженися, сину,  - тато не казав.
Взяв я собі жінку, як мед з калачем,
Заплатив і втікла вона з паничем.

Приспів.
Поділитись сторінкою: FB
 
  ІНФОРМАЦІЯ ПРО ПІСНЮ
[cховати]

Ключові слова: Народні пісні, Ярема 1, Веселка
Джерело: Надав Святослав

Примітки: Подібний текст є на сайті, але
на перший погляд незначні відмінності є суттєвими, цінностними.
Цей варіянт відображує інкультурованість автора у християнський
світ - "в церкву одвели" а не "в хату" ( бо на хрещення)
"одна біда тільки - олію нема" Цю фразу совок не розуміє, але
так казали про дурного, це з євангельської притчі "про трьох дів".
Але у цьому варіянті є і вади - що таке "кутні? були люди - родичі мої"
- не зрозуміло тощо.


Пісню ввів: Святослав  20.11.2010
Відредаґовано: 23.11.2010
Переглядів: 2441
  ДИВІТЬСЯ ТАКОЖ
[cховати]
Інші варіянти цієї пісні
НазваСлова / МузикаA Файли  #
 Ярема (гол. варіант) (народна пісня) 4020
 Аби побачити пояснення малюнків у колонці "Файли", підведіть курсор мишки до малюнка.      
Підбірки пісень:
Народні пісні
Жартівливі пісні
  ЗАПИСИ, MP3, НОТИ (1) Скачати безкоштовно :)

Увага! Пісня присутня на сайті у кількох варіантах, у них теж можуть бути записи та ноти!
Переглянути варіанти >>
ВмістФорматОписРозмір, кб#
 MP3 Аудіозапис (mp3, 128 kbps)
Виконує: Веселка
Джерело: З приватної колекції
ввів(-ла): 20.11.2010
2,896186
  Увійдіть як зареєстрований користувач, щоб прослухати.


Увага! Всі матеріали можна скачати безплатно виключно з ознайомчою метою для приватного використання! При додаванні файлів зважайте на авторські права! Щоб мати змогу додавати файли, у Вашому бровзері має бути дозволений JavaScript та відкривання нових вікон!

  ВІДЕОЗАПИСИ, КЛІПИ (3)

Увага! Пісня присутня на сайті у кількох варіантах, у них теж можуть бути додані відеокліпи!
Переглянути варіанти >>

Ансамбль "Поліські соколи", м. Житомир

Ярема мудра голова - Анатолій Руденко

Ярема - Козятинські козаки
 

  ВИПРАВЛЕННЯ ТА ДОПОВНЕННЯ     ПРАВИЛА!     ДЕ СКАЧАТИ mp3 ?!
[cховати]
1. snake_09 (користувач) 05.12.2010 15:47    
Як що кому потрібна табалтура для цієї пісні, я так граю

  Оце я родився….
E-------------9--9-10-9-7------:
H-10-10-10-12-------------10-9-:
G------------------------------:
D------------------------------:
A------------------------------:
E------------------------------:

E----------------12-12-12-10-9-
H-9-9-9-10-12-12---------------
G------------------------------
D------------------------------
A------------------------------
E------------------------------  (2x)

 Приспів:
   Оце я Ярема…
E-12-12-9--12-12-9--12-12-10-9-10-10-7-:
H--------------------------------------:
G--------------------------------------:
D--------------------------------------:
A--------------------------------------:
E--------------------------------------:

E-7-7-7-9-10--10-12-12-12-10-9-
H-------------------------
G-------------------------
D-------------------------
A-------------------------
E------------------------- (2x)
-1/0


  Адреса цієї сторінки: https://www.pisni.org.ua/songs/2191096.html

 ВХІД
Е-мейл: 
Пароль: 
  Забули пароль?
  
  ПІДПИШІТЬСЯ! ГРУПИ У СОЦМЕРЕЖАХ
FB