На головну сторінку

911

повна табулатура

Слова: Святослав ВакарчукМузика: Святослав Вакарчук
Виконує: Океан Ельзи  (альбом "Модель")
До мого пісенника: 1 2 3

 
1|--------9---------|
2|------9---8-------|
3|--5-6-------7-5-~-|
4|------------------|


   Cm                      Cm#  Bm Cm

4|--10---10---10--------10---11--8--10------------------|       |
5|--10---10---10--------10---11--8--10------------------|       |
6|---8----8----8---------8----9--6---8------------------|       |
                                                                |
   Bm                                 Cm Gm# Bm                 |  X2
                                                                |
4|---8----8----8---------8----8----8--10--6--8----------|       |
5|---8----8----8---------8----8----8--10--6--8----------|       |
6|---6----6----6---------6----6----6---8--4--6----------|       |

--------------------- 1 куплет ----------------------------------

   Cm       Cm            Fm          Fm
  Ти моя остання любов, моя машина, моя машина,
  Ти і я напилися знов, моя єдина, на смак бензинy й кави.

1|-------3------|---------1---------3-------1-------
2|-----4--------|-------1-------1-------1-------1---
3|-3h5----------|-1---------------1-------1-------1-

  День і ніч дихає час, а ми з тобою живемо двоє,
  Автомобіль бyде y нас, моє ти сонце.

--------------------- Приспів ----------------------------------

         Cm    e---0-1-2-D#   Gm      Cm
               B-3-------
  Я не один,                і ти не одна
  Скільки людей,            стільки машин
  Ти не одна,               і я не один,
  Мій телефон -             911

----------------------------------------------------------------
   Cm                      Cm#  Bm Cm

4|--10---10---10--------10---11--8--10------------------|       |
5|--10---10---10--------10---11--8--10------------------|       |
6|---8----8----8---------8----9--6---8------------------|       |
                                                                |
   Bm                                 Cm Gm# Bm                 |  (2)
                                                                |
4|---8----8----8---------8----8----8--10--6--8----------|       |
5|---8----8----8---------8----8----8--10--6--8----------|       |
6|---6----6----6---------6----6----6---8--4--6----------|       |

--------------------- 2 куплет ----------------------------------

  Ти і я - счаслива сім'я, Бо ти машина i я машина
  Може твій, а може твоя, моя єдина, Hалий бензинy й кави

1|-------3------|---------1---------3-------1-------
2|-----4--------|-------1-------1-------1-------1---
3|-3h5----------|-1---------------1-------1-------1-

  Хто не забyв, сьогодні до нас, заходьте в гості, заходьте в гості,
  Ставити фільм, може і нас колись покажyть, та

--------------------- Приспів ----------------------------------

         Cm    e---0-1-2-D#   Gm      Cm
               B-3-------
  Я не один,                і ти не одна
  Скільки людей,            стільки машин
  Ти не одна,               і я не один,
  Мій телефон -             911
Поділитись сторінкою: FB
 
  ІНФОРМАЦІЯ ПРО ПІСНЮ
[cховати]

Ключові слова: 911, Святослав Вакарчук, повна табулатура, Океан Ельзи, Модель

Пісню ввів(-ла): kpss  09.07.2009
Відредаґовано: 11.03.2015
Переглядів: 7799
  ВАША ДУМКА ТА ПОБАЖАННЯ
[cховати]
Якість підбору акордів
Оцінка: 4.15  Голосів: 39
 < ПоганоДобре > 
1 2 3 4 5
  ЗАПИСИ, MP3, НОТИ (1) Скачати безкоштовно :)

ВмістФорматОписРозмір, кб#
 Guitar Pro Табулатура (gp5)
Джерело: ultimate guitar
ввів: homa 11.09.2012
5267


Увага! Всі матеріали можна скачати безплатно виключно з ознайомчою метою для приватного використання! При додаванні файлів зважайте на авторські права! Щоб мати змогу додавати файли, у Вашому бровзері має бути дозволений JavaScript та відкривання нових вікон!

  ВІДЕОЗАПИСИ, КЛІПИ

На жаль, до цієї пісні поки що немає жодного кліпа :(

  ВИПРАВЛЕННЯ ТА ДОПОВНЕННЯ     ПРАВИЛА!     ДЕ СКАЧАТИ mp3 ?!
[cховати]
1. Свят (користувач) 14.03.2011 08:13    
Хммм, чому такий низький рейтинг, підбір досить добрий.
0/0


  Адреса цієї сторінки: https://www.pisni.org.ua/songs/2123515.html

 ВХІД
Е-мейл: 
Пароль: 
  Забули пароль?
  
  ПІДПИШІТЬСЯ! ГРУПИ У СОЦМЕРЕЖАХ
FB