На головну сторінку

Стільникове кохання


Виконує: Тартак  (альбом "Музичний лист щастя")
До мого пісенника: 1 2 3

 
Я відчуваю близьку необхідність внутрішнього оновлення.
Я дістаю свого маленького друга, створюю нове повідомлення.
Напишу ті слова, що тобі не казав на наших з тобою побаченнях.
Напишу ті слова, що зараз для мене мають найбільше значення.
Про те, що ламає мене на шматки та складає, неначе мозаїку.
Про те, що кладе поетичні рядки під розкисле перо прозаїка.
Щоб ти знала й про те, як у серці мете нестерпно гаряча хурделиця,
З тіла рветься душа і по вістрю ножа нескінченною стрічкою стелиться.

Напишу SMS – це технічний прогрес
Дає мені шанс на майбутнє.
Зведений в культ, цей малесенький пульт
З'єднує з тим, хто відсутній.
Напишу SMS – від землі до небес
І з небес до землі пронесеться.
А коли долетить, хай, принаймні, на мить
Твоє серце частіше заб'ється.

Я раніше про це тобі не говорив, бо якось не випадало можливості...
Але ні, ти не вір – я цього не робив, бо просто не вистачало сміливості!
Безліч раз підбирав необхідні слова, щоб сказати при першій нагоді,
Та в останній момент всі слова забував і червонів, наче спійманий злодій.
Я щоночі не сплю – від потоку думок ніяк не вдається заснути –
І кручусь, і верчусь, і гарчу, наче вовк, ланцюгом до неволі прикутий...
Але прикро, що ти здатна відповісти лиш відвертим незадоволенням:
"Вибач мене за тон – тільки мій телефон не читає твої повідомлення!"...

Напишу SMS – це технічний прогрес
Дає мені шанс на майбутнє.
Зведений в культ, цей малесенький пульт
З'єднує з тим, хто відсутній.
Напишу SMS – від землі до небес
І з небес до землі пронесеться.
А коли долетить, хай, принаймні, на мить
Твоє серце частіше заб'ється.

--------------------------------------------------------------------
Табулатура від "CRASH" (sk8er_boі@pіsem.net):

Цей риф повторюється упродовж усієї пісні:

E||-----------------------|--------------|----------------|
B||--------------7--5-----|--------3--1--|--------0-------|
G||--------0-----------0--|-----0--------|-----0-----2----|
D||-----0-----0-----------|--2-----------|--0-------------|
A||--7--------------------|--------------|----------------|
E||-----------------------|--------------|----------------|

--------------------||
-----------------3--||
--------4-----2-----||
-----0-----2--------||
--3-----------------||
--------------------||


----------------------------------------------------------
Табулатура від "Mіdnіghter":

|---------------------|-----------|----------|---------------|
|-----------7---5---0-|-----3-1---|-----3-1--|-------------4-|
|-----0---------------|---0-------|---0------|------2--------|
|---5---5-------------|-2---------|----------|----2------4---|
|-7-------7---7---7---|-----------|-3--------|--0------2-----|
|---------------------|-----------|----------|---------------|
Поділитись сторінкою: FB
 
  ІНФОРМАЦІЯ ПРО ПІСНЮ
[cховати]

Ключові слова: Стільникове кохання, Тартак, Музичний лист щастя
Джерело: http://www.tartak.com.ua/song.html

Пісню додано:  15.07.2004
Відредаґовано: 15.03.2015
Переглядів: 13599
  ДИВІТЬСЯ ТАКОЖ
[cховати]
Підбірки пісень:
Філософські пісні
  ВАША ДУМКА ТА ПОБАЖАННЯ
[cховати]
Якість підбору акордів
Оцінка: 4.06  Голосів: 68
 < ПоганоДобре > 
1 2 3 4 5
  ЗАПИСИ, MP3, НОТИ Скачати безкоштовно :)

На жаль, до цієї пісні поки що немає жодного файла :(

Увага! Всі матеріали можна скачати безплатно виключно з ознайомчою метою для приватного використання! При додаванні файлів зважайте на авторські права! Щоб мати змогу додавати файли, у Вашому бровзері має бути дозволений JavaScript та відкривання нових вікон!

  ВІДЕОЗАПИСИ, КЛІПИ (2)


Тартак - Стільникове кохання

Тартак - Стільникове кохання(кліп)
  

  ВИПРАВЛЕННЯ ТА ДОПОВНЕННЯ     ПРАВИЛА!     ДЕ СКАЧАТИ mp3 ?!
[cховати]
11. Артем (гість) 06.05.2011 23:36    
так лучше
1) |-----------------0--2--0--------------------------------------------------------------------------------|
2) |-------------0----------------0---------3---1-----------------3---1---------------------------4-------|
3) |---------0--------------------------------------------------0---------------------2---------4----------|
4) |--------------------------------------------------------------------------------2------------------------|
5) |--------------------------------- 0---------------------3-------------------0-----------2---------------|
6) |----0----------------------------------------------------------------------------------------------------|
+1/0

10. vvs (член клубу) 30.12.2009 23:47    
гадаю так краще...

E||-------------0---2---0--------|----------------------|--------------------|
B||--------0------------------0--|-------3/1-------3/1--|------------------4-|
G||------0---0--------------0----|----------------------|-------2------------|
D||--2---------------------------|----2----------2------|-----2---------4----|
A||------------------------------|-3----------3---------|-0----------2-------|
E||------------------------------|----------------------|--------------------|

0/0

9. SnakedGuevara (користувач) 08.04.2009 05:24    
Табулатура дійсно препогана, так що буду вас рятувати гравці Тартаку! написав свою версію 8-]  Дивіться,грайте,насолоджутеся! Український Рок! Коментарі будь-ласка!  †SnakedGuevara†



E||-----------0---2---0-----|--------------|-----------------|
B||--------0----------------|---3/1---3/1--|---1-----------4-|
G||------0------------------|--------------|-------2---------|
D||--2----------------------|-2-----2------|-2-----2--4------|
A||-------------------------|-3-----3------|-3--------2------|
E||-------------------------|--------------|-----------------|
0/0

8. влад (гість) 15.06.2008 17:43    
НУ ВИ І МАТЮКИ ПИШЕТЕ!!!
Табулатура ще якась фігня.
Три блотних акорда і розумне лице.
0/0

7. Гість (гість) 26.10.2005 20:25    
Стільникове кохання.mp3
http://www.mistoleva.net/index.php?showfile=1&fid=322&p=downloads&area=1&categ=14
0/0

6. Максик (гість) 10.09.2005 15:42    
Така гарна пісня й така відстойна табулатура!!! Хто бажае кращу табулатуру, пищіть мені!
0/0

5. ***ADEON*** (гість) 13.07.2005 15:11    
Табулатура действительно отстойная!!! Кому надо правильная табулатура а также песня, пишите на мыло adeon@mail.ru
0/0

4. Доброжелатель (гість) 27.06.2005 06:10    
Песня из ВЕРИ ГУД!
Но ссылка не работает почему-то!
ftp://195.214.214.6/tartak/muzichniyi list shchastya/11 stiulnikove kohannya .mp3

Скиньте плизз у кого есть ссылку для скачивания!
ПОЖАЛУЙСТА.

--
При отправке письма замените текст SOBAKA в адресе на обычную @. Заранее спасибо!
0/0

3. Sashko (член клубу) 21.06.2005 06:46    
ЛЮДИ! КОМУ ПОТРІБНІ АКОРДИ "СТІЛЬНИКОВОГО КОХАННЯ"?
ЗАПИСУЙТЕ: Em Am C Am H7
=Ну, це в тональності Еm. Кому треба інша тональність - використовуйте модуляцію!=
0/0

2. CJ (гість) 15.06.2005 02:52    
ftp://195.214.214.6/tartak/muzichniyi%20list%20shchastya/11%20stiulnikove%20kohannya%20.mp3 всем тем, кто ищет песню =)
0/0

1. ЯркО (гість) 05.06.2005 12:30    
а може в когось є міді?
0/0


  Адреса цієї сторінки: https://www.pisni.org.ua/songs/210199.html

 ВХІД
Е-мейл: 
Пароль: 
  Забули пароль?
  
  ПІДПИШІТЬСЯ! ГРУПИ У СОЦМЕРЕЖАХ
FB