На головну сторінку

Колискова

(Спи, моя люба)


Слова: Олег ЛишегаМузика: Тарас Чубай
Виконують:
Плач Єремії  (альбом "Як я спала на сені")
Тарас Чубай  (альбом "Через зiроньку ясну")
До мого пісенника: 1 2 3

 
  Em Em/C H11/F# Hsus4 H7
Спи,       моя люба,      усе засинає,
Попивши на ніч з pіки молока.
Циферблат будильника
поріс сухим очеретом, дрімає.
Колиска твоя,
всміхнувшись прощально
білосніжним сміхом,
загойдалась на вітрі,
    C         H7    C    H7
підвішена до неба снами.

Я заплету твої коси до завтра,
ранком нахилюсь над тобою в інеї,
стрічки яскраві, багряні.
...стрічки яскраві.

Спи, моя люба,
в домі очерету горить свічка,
запалена мною, бездомним.
Крига над тобою, крига під тобою.
Полум'я відігріє пам'ять.

Спи, моя люба, усе засинає,
попивши на ніч з ріки молока.

Кpига над тобою, кpига під тобою. (2)
Полум'я відігpіє пам'ять. (Кpига над тобою) (4)

Спи, моя люба, усе засинає,
попивши на ніч з pіки молока...
А-а...
Поділитись сторінкою:
 
  ІНФОРМАЦІЯ ПРО ПІСНЮ
[cховати]

Ключові слова: Колискові, Колискова, Спи, моя люба, Олег Лишега, Тарас Чубай, Плач Єремії, Як я спала на сені, Через зiроньку ясну
Підбір акордів: невідомий
Джерело:
1. http://www.mo-productions.com/ukr/zironkatapelyrics.html
2. http://accords.com.ua

Примітки: Вперше пісня увійшла до альбому "ЧЕРЕЗ ЗІРОНЬКУ ЯСНУ (1992) (Українські колискові
пісні) (книжка й музична касета)

Використані акорди:
H11/F# [2 0 1 4 2 0]
Em/C [x 3 2 0 0 0]


Пісню ввів: bohdanko  22.09.2006
Відредаґовано: 05.02.2015
Переглядів: 18357
  ДИВІТЬСЯ ТАКОЖ
[cховати]
  ВАША ДУМКА ТА ПОБАЖАННЯ
[cховати]
Якість підбору акордів
Оцінка: 3.27  Голосів: 26
 < ПоганоДобре > 
1 2 3 4 5
  ВИПРАВЛЕННЯ ТА ДОПОВНЕННЯ     ПРАВИЛА!     ДЕ СКАЧАТИ mp3 ?!
[cховати]
6. Віктор Морозов (користувач) 27.01.2015 04:24    
В альбомі "Через зіроньку ясну" цю пісню співає Тарас Чубай, а не Віктор Морозов

webmaster: дякую, виправлено
0/0

5. romath (користувач) 15.05.2013 00:47    
                       
           ↑           ↑             ↑      ↓        ↑       ↓;      ↑                                               
E||--------0-----------0---|---------2------0--------2---||--2------2-------------3----|----3----------------2-----|
B||--------0-----------0---|---------2------0--------4---||--2------4-------------5----|------5--------------4-----|
G||*-------0-----------0---|---------4------0--------2---||--2------2----------3-------|--------3--------2---------|
D||*-------2-----------2---|---------4------0--------4---||--2------4--------5---------|---------------4-----------|
A||--------2-----------2---|---------2------0--------2---||--2------2------3-----------|-------------2-------------|
E||---0--------0--3--------|--3--2----------0--------2---||--2------2------------------|---------------------------|
0/0

4. romath (користувач) 15.05.2013 00:45    
мабуть ці таби будуть правильніші:
                       
           ↑           ↑             ↑      ↓        ↑       ↓      ↑                                               
E||--------0-----------0---|---------2------0--------2---||--2------2-------------3----|----3----------------2-----|
B||--------0-----------0---|---------2------0--------4---||--2------4-------------5----|------5--------------4-----|
G||*-------0-----------0---|---------4------0--------2---||--2------2----------3-------|--------3--------2---------|
D||*-------2-----------2---|---------4------0--------4---||--2------4--------5---------|---------------4-----------|
A||--------2-----------2---|---------2------0--------2---||--2------2------3-----------|-------------2-------------|
E||---0--------0--3--------|--3--2----------0--------2---||--2------2------------------|---------------------------|
0/0

3. HAnS (користувач) 09.05.2010 23:39    
Шановні колеги, у файлах є друга версія табулатури, виправлена) Подав у форматі gp4 для більшої сумісності, хоча та, по ходу, немає auto let ring, тому не так красиво звучить.
Ну і текстова версія
      Em   Em                        F#sus4          B7      C                          B7                       
           ^           ^             ^               ^                                                           
      Q    E.  E  Q    E.     E  E.  E.     E  E  E  E       E  E  E  Q    E  S S E     E  E  E  Q    E  S S E   
E||--------0-----------0---|---------2------0--------2---||-----------0-------0------|-----------2-------2------|
B||--------0-----------0---|---------2---------------4---||---------------------1----|---------------------4----|
G||*-------0-----------0---|---------4---------4-----2--*||--------0--------------0--|--------2--------------2--|
D||*-------2-----------2---|---------4------------4--4--*||-----2----------2---------|-----4----------4---------|
A||--------2-----------2---|---------2---------------2---||--3-----------------------|--2-----------------------|
E||---0--------0--3--------|--3--2-----------------------||--------------------------|--------------------------|
0/0

2. HAnS (користувач) 17.04.2010 22:59    
У файлах завантажив те саме у форматі guitar pro 5)
0/0

1. HAnS (користувач) 17.04.2010 22:33    
Імхо грається отаким чином. Тут 2 основні теми, із яких набирається вся пісня =)

      Em   Em                        F#sus4        B7        C                         B7                      
           ^           ^             ^             ^                                                           
      Q    E.  E  Q    E.     E  E.  E.     E  S S Q         E  E  E  Q    E  E  E     E  E  E  Q    E  E  E   
E||--------0-----------0---|---------2------0------2-----||-------------------0-----|-------------------2-----|
B||--------0-----------0---|---------2-------------4-----||-----------1----------1--|-----------4----------4--|
G||*-------0-----------0---|---------4---------4---2----*||--------0----------------|--------2----------------|
D||*-------2-----------2---|---------4-----------4-4----*||-----2----------2--------|-----4----------4--------|
A||--------2-----------2---|---------2-------------2-----||--3----------------------|--2----------------------|
E||---0--------0--3--------|--3--2-----------------------||-------------------------|-------------------------|
0/0

  Адреса цієї сторінки: http://www.pisni.org.ua/songs/942384.html

 ВХІД
Е-мейл: 
Пароль: 
  Забули пароль?
  
  ПІДПИШІТЬСЯ! ГРУПИ У СОЦМЕРЕЖАХ