На головну сторінку

Спи собі сама


Слова: СкрябінМузика: Скрябін
Виконують:
Скрябін  (альбом "Натура")
Олександр Пономарьов  (альбом "Я люблю тільки тебе")
До мого пісенника: 1 2 3

 
Вступ:
Tab (підібрав: smash )
     Gm/E                      A7
E||-------------------3-----|-------------------0-----|
B||-----------3----------3--|-----------2----------2--|
G||--------0-------0--------|--------0-------0--------|
D||-----0-------------------|-----2-------------------|
A||--1----------------------|--0----------------------|
E||-------------------------|-------------------------|


  Dm          Cadd9          Gm/E
--------1-----------3-----|-------------------3-----|
-----------3-----------3--|-----------3----------3--|
-----2-----------0--------|--------0-------0--------|
--0-----------------------|-----0-------------------|
--------------3-----------|--1----------------------|
--------------------------|-------------------------|


  A7sus4                    A7
-------------------------|------------------0-----||
-----------3----------3--|--2---------2h-3-----2--||
--------0----------0-----|------------------------||
-----2----------2--------|------------------------||
--0----------------------|---------0--------------||
-------------------------|------------------------||


         Gm/E       A7
Часом буває так що хочеш почути
 Dm    Cadd9   Gm/E
Речі яких б ніколи не знати
   Gm/E             A7
I тягне  за руку тебе в то місце
 Dm    Cadd9   Gm/E             A7sus4 A7
Де думаєш краще б очей не мати

Ти дивишся в кухні на кран і воду
А правда ні звідки не виходить
I дивляться в очі тобі знайомі
I їхні очі тобі говорять...

Приспів:
  Gm/E      A7
Спи собі сама             |
   Dm      Cadd9  Gm/E    | (4)
Коли біля тебе мене нема  |


A7sus4 A7

Програш:
Gm/E A7 Dm Cadd9 Gm/E (4)
A7sus4 A7

Часом буває так що в магазині
Ти хочеш крикнути "Ну в чому я винна"
Тебе окидають розуміючим оком
I дуже болить хоча й ненароком

I ти ростеш, старієш, вмираєш
А тої правди так і не знаєш
Боїшся її і від неї втікаєш
I в стінах своїх ти одна засинаєш

Приспів.
Програш.

Приспів:
Спи собі сама            |
Коли біля тебе мене нема | (3)
  Gm/E      A7  Dm
Спи собі сама
Поділитись сторінкою: FB
 
  ІНФОРМАЦІЯ ПРО ПІСНЮ
[cховати]

Ключові слова: Спи собі сама, Скрябін, Натура, Олександр Пономарьов, Я люблю тільки тебе
Підбір акордів: smash, bohdanko
Джерело: текст (основа) - http://skryabin.ru

Пісню ввів: bohdanko  09.04.2004
Відредаґовано: 08.10.2018
Переглядів: 140396
  ДИВІТЬСЯ ТАКОЖ
[cховати]
Підбірки пісень:
Пісні про кохання, ліричні
  ВАША ДУМКА ТА ПОБАЖАННЯ
[cховати]
Якість підбору акордів
Оцінка: 4.44  Голосів: 255
 < ПоганоДобре > 
1 2 3 4 5
  ВИПРАВЛЕННЯ ТА ДОПОВНЕННЯ     ПРАВИЛА!     ДЕ СКАЧАТИ mp3 ?!
[cховати]
24. Bezodnya 16.01.2019 11:25    
ТОП-10 каверів на пісню Спи собі сама

https://www.youtube.com/watch?v=e4FaeHTwsT4
0/0

23. Guitar S.R (користувач) 02.05.2015 01:32    
cover на "Скрябін - Спи собі сама"
https://www.youtube.com/watch?v=HQrp5cuwZ-w
переглядайте та підписуйтесь на канал
0/0

22. sviato (користувач) 22.06.2013 22:54    
Відеоурок від Святослава Адепта (SviatslavAdept)http://www.youtube.com/watch?feature=player_embedded&v=d0hMXumd-Qc
0/0

21. gmm (користувач) 06.02.2013 20:24    
А чому там Gm/E?
якщо там ноти G B D, а це звичайний Соль мінор
+1/0

20. Ігор (гість) 25.11.2011 18:57    
Скажіть перебор! буду вдячний!
0/0

19. DEMON777 (користувач) 29.05.2010 03:17    
дуже дякую!))
0/0

18. Woldemar (гість) 15.05.2010 12:25    
програш
E||-------------------------------|
B||--------13---------------------|
G||--12h14------14--12p10h12-14---|
D||-----------------------------12|
A||-------------------------------|
E||-------------------------------|

|---------------------------------|
|--------13-----------------------|
|--12h14------14--14--14\12-------|
|---------------------------------|
|---------------------------------|
|---------------------------------|

|-----------------------------------------------13b15r13--10---------------------------------------|
|--------13-----------------------13b15r13--10-----------------13b15r13--10------------------------|
|--12h14------14----12b14r12--10---------------------------------------------12b14r12~~~~----10----|
|--------------------------------------------------------------------------------------------------|
|--------------------------------------------------------------------------------------------------|
|--------------------------------------------------------------------------------------------------|

|---------------------------------|
|---------------------------------|
|---------------------------------|
|--12--10-------------------------|
|----------12--10--8--------------|
|---------------------10----------|

by Woldemar
+2/0

17. SlavkaNik (гість) 28.08.2009 13:54    
А вы попробуйте 
F                   Em 
Часом буває так що хочеш почути
Am   G        C (C7)
Речі яких б ніколи не знати

и в припеве тоже
0/0

16. Джоні (гість) 11.07.2009 20:46    
Уважаемые, попробуйте следующую комюинацию вместо предложенной B-dur A7 Dm C B-dur Gm A7 (проигрыш в начале)
0/0

15. derico (гість) 08.11.2008 11:56    
На підбір грішити ніззя))) - найкращий з тих що знайшов в неті!
0/0

14. Lora (гість) 05.11.2008 17:28    
Цинічна як і сам Скрябін
0/0

13. Марта (гість) 02.06.2008 21:56    
Гарна пісня мені подобається і мелодія гарна!
0/0

12. Івасько (гість) 29.09.2007 18:00    
Найбільший прикол в тому, що пісню написав не Кузьма, а Андрій Підлужний (Нічлава)
0/0

11. Rockermaks (гість) 04.05.2007 21:21    
Хто хоче поділитися враженнями 80989104851 Укр. рок це моє життя
0/0

10. Maxim (гість) 18.03.2007 22:45    
Так, пісня дуже глибока.... І загадковість цієї пісні в тому, що всі дуже порізному її сприймають, думать про безліч різних речей і станів душі. Я довго намагався зрозуміти, про що думав Кузьма, коли писав цю пісню... І невдовзі по телевізору побачив передачу, в якій Кузьма розповів, що саме він хотів сказати...
0/0

9. Зорянка (гість) 14.03.2007 17:02    
Хто думає так само,як я, пишіть на номер 80979604534.Поспілкуємось.Цьом.ПА-ПА.
0/0

8. Зорянка (гість) 14.03.2007 17:00    
Такий глибокий зміст.Просто вражає!В цих декількох рядках можна передати всю суть того стану, коли нічого не хочеться,крім тиші і спокою.Це той стан, коли засинаєш знову сама, хоча так хочеться не спати...
0/0

7. Kitaec (гість) 22.07.2005 12:53    
Давно искал акорды к этой песне и вот случайно нашёл.
0/0

6. Oscar (гість) 14.07.2005 16:42    
Во втором такте пятая нота - ре (вторая струна, третий лад).

И первый аккорд, как мне кажется, действительно B,
но тогда проблема, как сиграть первый такт?
Это либо зажимать тремя пальцами четыри струны(барэ на первом ладу),
либо брать малое барэ на третьем, а бас тянуть мизинец до 6-го лада 6-й струны ..
0/0

5. maciekkk (член клубу) 17.11.2004 14:46    
граючи акордами - там де написано Gm/E краще брати B [113331] або [688766]
0/0

4. Vampir Катя (гість) 13.11.2004 19:37    
музыка очень прикольная, но песня меня вводит в депресняк
0/0

3. Назар (гість) 08.11.2004 12:28    
Молодець.Слів нема.
0/0

2. Bottle King (гість) 02.07.2004 02:19    
Як на мене, красивше звучить так m E Am F
0/0

1. Косичкина (користувач) 27.05.2004 16:01    
Суперская , больше нечего сказать!!!
0/0

  Адреса цієї сторінки: http://www.pisni.org.ua/songs/84312.html

 ВХІД
Е-мейл: 
Пароль: 
  Забули пароль?
  
  ПІДПИШІТЬСЯ! ГРУПИ У СОЦМЕРЕЖАХ
FB