На головну сторінку

Подаруй світло мені


Слова: С.К.А.Й.Музика: С.К.А.Й.
Виконує: С.К.А.Й.  (альбом ""!"")
До мого пісенника: 1 2 3

 
Я біжу назустріч вітру, аж на край землі,
Де, я вірю, залишилось щось хороше.
Я не знаю, дім в якій мій стороні,
Я не знаю, чи повернусь я туди ще.
Навколо кружляють тисячі життєвих сцен,
Стрімко розбиваючись об каміння часу.
На великій відстані сняться мені сни,
Образи людей, яких давно не бачив.
Дім завжди чекає тебе поглядом у вікні,
Рідні очі так жадають зустрічі з тобою.

Приспів:
Подаруй світло...
Подаруй світло мені...
Подаруй світло...

Я не хотів би мати абсолютно все,
Віддаючи комусь, нічого не чекати,
На краю світу я зрозумів одне:
Неможливо у житті всі мрії наздогнати.
Я шукав те, що в мене було завжди,
Але тільки зараз я цe все побачив.

Приспів. (2)
Поділитись сторінкою: FB
 
  ІНФОРМАЦІЯ ПРО ПІСНЮ
[cховати]

Ключові слова: Подаруй світло мені, С.К.А.Й., "!"

Примітки: пісня з реклами шоколаду "Світоч"

Пісню додано:  03.07.2008
Відредаґовано: 21.12.2010
Переглядів: 72778
  ДИВІТЬСЯ ТАКОЖ
[cховати]
 
  ВАША ДУМКА ТА ПОБАЖАННЯ
[cховати]
 
  ВИПРАВЛЕННЯ ТА ДОПОВНЕННЯ     ПРАВИЛА!     ДЕ СКАЧАТИ mp3 ?!
[cховати]
41. Ярко Сеник (користувач) 01.09.2015 06:13    
https://youtu.be/rZuoFBBXxSM
Підібрав з цього відео
Капо на 3 лад
Акорди:
G__Em7__Cadd2___D___Em__C
3___3_____3_____2___0___0
3___3_____3_____3___0___1
0___0_____0_____2___0___0
0___2_____2_____0___2___2
2___2_____3_____0___2___3
3___0_____X_____X___0___X

Перший куплет грається перебором:
_G_______________________________Em7
-3-------3-------3-------3-------3-------3-------3-------3-
-----3-------3-------3-------3-------3-------3-------3-----
---0---0---0---0---0---0---0---0---0---0---0---0---0---0---
-----------------------------------------------------------
---------------------------------2---------------2---------
-3---------------3-----------------------------------------

Cadd2
-3-------3-------3-------3-------3-------3-------3-------3-
-----3-------3-------3-------3-------3-------3-------3-----
---0---0---0---0---0---0---0---0---0---0---0---0---0---0---
-----------------------------------------------------------
-3---------------3---------------3---------------3---------
-----------------------------------------------------------

_________G____________________________Em7
Я біжу назустріч вітру, аж на край землі,
_________Cadd2
Де, я вірю, залишилось щось хороше.
Я не знаю, дім в якій мій стороні,
Я не знаю, чи повернусь я туди ще.
Навколо кружляють тисячі життєвих сцен,
Стрімко розбиваючись об каміння часу.
На великій відстані сняться мені сни,
Образи людей, яких давно не бачив.
Дім завжди чекає тебе поглядом у вікні,
Рідні очі так жадають зустрічі з тобою.
0/0

40. Ярко Сеник (користувач) 01.09.2015 06:13    
Перший приспів також пепребором:
_D______________Cadd2____________3x
-2-------2-------3-------3-------
-----3-------3-------3-------3---
---2---2---2---2---0---0---0---0-
-2-------------------------------
-----------------3---------------
---------------------------------

_D
-2-------2-------2-------2-------2-------2-------2-------2-----
-----3-------3-------3-------3-------3-------3-------3-------3-
---2---2---2---2---2---2---2---2---2---2---2---2---2---2---2---
-2---------------2---------------2---------------2-------------



_G_______________________________Em______________C
-3-------3-------3-------3-------0-------0-------0-------0-------
-----3-------3-------3-------3-------0-------0-------1-------1---
---0---0---0---0---0---0---0---0---0---0---0---0---0---0---0---0-
-----------------------------------------------------------------
---------------------------------2---------------3---------------
-3---------------3-----------------------------------------------

_G
-3-------3-------
-----3-------3---
---0---0---0---0-
-----------------
-----------------
-3---------------

Приспів:
________D______Cadd2

Подаруй світло...
________D______Cadd2
Подаруй світло мені...
________D______Cadd2
Подаруй світло...
D
_______________G_Em_C
Подаруй світло...
________G
Подаруй світло...


Другий куплет і приспів граються боєм:
Вниз, вниз, вверх, вверх, вниз, вниз, вверх, вниз, вверх

________G_____________________Em7
Я не хотів би мати абсолютно все,
______Cadd2

Віддаючи комусь, нічого не чекати,
На краю світу я зрозумів одне:
Неможливо у житті всі мрії наздогнати.
Я шукав те, що в мене було завжди,
Але тільки зараз я цe все побачив.


Приспів. (2)
________D______Cadd2
Подаруй світло...
________D______Cadd2
Подаруй світло мені...
________D______Cadd2
Подаруй світло...
D_C
__________G_Em_C
Подаруй світло...
Подаруй світло...
Подаруй світло...
0/0

39. Ярко Сеник (користувач) 01.09.2015 06:12    
Вибачайте що так криво скинув з кінця на перед
Другий куплет і приспів граються боєм:
Вниз, вниз, вверх, вверх, вниз, вниз, вверх, вниз, вверх

________G_____________________Em7
Я не хотів би мати абсолютно все,
______Cadd2
Віддаючи комусь, нічого не чекати,
На краю світу я зрозумів одне:
Неможливо у житті всі мрії наздогнати.
Я шукав те, що в мене було завжди,
Але тільки зараз я цe все побачив.


Приспів. (2)
________D______Cadd2
Подаруй світло...
________D______Cadd2
Подаруй світло мені...
________D______Cadd2
Подаруй світло...
D_C
__________G_Em_C
Подаруй світло...
Подаруй світло...
Подаруй світло...
0/-2

38. Ярко Сеник (користувач) 01.09.2015 06:02    
Перший приспів також пепребором:
_D______________Cadd2____________3x
-2-------2-------3-------3-------
-----3-------3-------3-------3---
---2---2---2---2---0---0---0---0-
-2-------------------------------
-----------------3---------------
---------------------------------

_D
-2-------2-------2-------2-------2-------2-------2-------2-----
-----3-------3-------3-------3-------3-------3-------3-------3-
---2---2---2---2---2---2---2---2---2---2---2---2---2---2---2---
-2---------------2---------------2---------------2-------------


_G_______________________________Em______________C
-3-------3-------3-------3-------0-------0-------0-------0-------
-----3-------3-------3-------3-------0-------0-------1-------1---
---0---0---0---0---0---0---0---0---0---0---0---0---0---0---0---0-
-----------------------------------------------------------------
---------------------------------2---------------3---------------
-3---------------3-----------------------------------------------

_G
-3-------3-------
-----3-------3---
---0---0---0---0-
-----------------
-----------------
-3---------------

Приспів:
________D______Cadd2
Подаруй світло...
________D______Cadd2
Подаруй світло мені...
________D______Cadd2
Подаруй світло...
D
_______________G_Em_C
Подаруй світло...
________G
Подаруй світло...
0/-2

37. Ярко Сеник (користувач) 01.09.2015 05:52    
https://youtu.be/rZuoFBBXxSM
Підібрав з цього відео
Капо на 3 лад
Акорди:
G__Em7__Cadd2___D___Em__C
3___3_____3_____2___0___0
3___3_____3_____3___0___1
0___0_____0_____2___0___0
0___2_____2_____0___2___2
2___2_____3_____0___2___3
3___0_____X_____X___0___X

Перший куплет грається перебором:
_G_______________________________Em7
-3-------3-------3-------3-------3-------3-------3-------3-
-----3-------3-------3-------3-------3-------3-------3-----
---0---0---0---0---0---0---0---0---0---0---0---0---0---0---
-----------------------------------------------------------
---------------------------------2---------------2---------
-3---------------3-----------------------------------------

Cadd2
-3-------3-------3-------3-------3-------3-------3-------3-
-----3-------3-------3-------3-------3-------3-------3-----
---0---0---0---0---0---0---0---0---0---0---0---0---0---0---
-----------------------------------------------------------
-3---------------3---------------3---------------3---------
-----------------------------------------------------------

_________G____________________________Em7
Я біжу назустріч вітру, аж на край землі,
_________Cadd2
Де, я вірю, залишилось щось хороше.
Я не знаю, дім в якій мій стороні,
Я не знаю, чи повернусь я туди ще.
Навколо кружляють тисячі життєвих сцен,
Стрімко розбиваючись об каміння часу.
На великій відстані сняться мені сни,
Образи людей, яких давно не бачив.
Дім завжди чекає тебе поглядом у вікні,
Рідні очі так жадають зустрічі з тобою.
0/-1

36. Vladislav (користувач) 20.03.2012 10:36    
Додав таби пісні. Грайте!
0/0

35. Саша (гість) 31.08.2011 10:48    
Перебор яким потрібно грати цей шедевр:

Б 2313 2313 2313...

Б - Бас
123 - номера струн
0/0

34. Маля (гість) 17.05.2011 18:17    
Каспер, сам ти ЛОХ!
0/0

33. Виталик (гість) 13.07.2010 23:57    
подскажите плз а какой перебор???
-1/0

32. Varg (гість) 29.06.2010 16:06    
Кто то может перебо скинуть??00
-1/0

31. sviatkoj (користувач) 29.06.2010 11:52    
Власна версія (Аcoustic)

Я біжу на зустріч
--------------------------------------------
-----------0------------------------0-------
-------2------2-----------------2-----2-----
-----2-------------2--------2------------2--
--0-----------------------------------------
--------------------------4------------------

-------------------------------------------
------------0---------------------0--------
---------2-----2--------------2------2-----
------2-----------2--------2-------------2-
-------------------------------------------
--2---------------------0------------------

-----------5--------4--------0-------
--------3-----3--------3-------3-----
------2---------2----------2------2---
---0----------------------------------
--------------------------------------
---------------------------------------


0---------2-----0----------------
--3-----0---0-----0---3----------
----2-1-------1-----1---1--------
------------------------------0--
---------------------------------
---------------------------------

Приспів 3рази табу

---------------------5---
--------0---------3------
------1--1-----2----------
----2------2-0------------
--------------------------
--0------------------------
0/0

30. vasya (гість) 10.05.2010 02:28    
skunte xtos normalni akordu i perebor...
0/0

29. Ксю (гість) 17.04.2010 15:52    
Спасибо огромное за песню)))она и правда очень близкая сердцу.Я уже раз 1000 слушаю её
0/0

28. Andry (гість) 09.04.2010 16:02    
ради би цю пісню всім грати з капою(каподастером на першому ладі),тому що так лекше береться ре дієс...

або на баре мені важко його взяти і напевно не тільки мені О_о


__________A#_____________F__________Gm
Я біжу на зустріч вітру аж на край землі
_______A#______F_____________Gm
Де я вірю залишилось щось хороше
__________A#__________F______Gm
Я не знаю дім в якій мій стороні
_________A#______F_________Gm
Я не знаю чи повернусь я туди ще

а з приспівом трохи важкувато...переграв всі варіанти приспівів які тут подавалися і ніочго не звучить!
ще й співати рпобував,все одно не то!
0/0

27. Олег 18.02.2010 13:05    
__________A#________________________Gm
Я біжу на зустріч вітру аж на край землі
_________D#__________________(F)
Де я вірю залишилось щось хороше
__________A#_________________Gm
Я не знаю дім в якій мій стороні
_________D#________________(F)
Я не знаю чи повернусь я туди ще



_______________F__D#_________F______D#
Пр.: Подаруй світло подаруй світло мені
_________F___D#_________A#__Gm________
подаруй світло подаруй світло подаруй світло
0/0

26. Стас (гість) 16.02.2010 20:13    
Підкажіть а який там перебор?
0/0

25. Денис (гість) 09.12.2009 18:05    
Каким перебором играть?
0/0

24. Fenix 24.10.2009 17:52    
дуже дуже дуже потрібні ноти плиз плиз плиз!
0/0

23. lookingforangels (гість) 15.10.2009 19:51    
пісня і справді дуже класна!...
Добре було б якби хтось виклав табулатуру
0/0

22. shmil (гість) 09.09.2009 22:51    
Дякую, гарна пісенька. Ще б хтось табулатуру написав сюди, було б круто.
0/0

21. amigoshka (користувач) 12.08.2009 17:50    
GDEm
Я біжу на зустріч вітру аж на край землі 
CEmD
Де я вірю залишилось щось хороше 
Я не знаю дім в якій мій стороні 
Я не знаю чи повернусь я туди ще 
GDEm   
Навколо кружляють тисячі життєвих сцен 
CDEm
Стрімко розбиваючись об каміння часу 
DGEm
На великій відстані сняться мені сни
CEmD 
Образи людей яких давно не бачив 
GDEm
Дім завжди чекає тебе поглядом в вікні 
CDEm
Рідні очі так жадають зустрічі з тобою 
                        
                D  C             D      C
Пр.: Подаруй світло    подаруй світло мені 
           D  C              G
подаруй світло     подаруй світло 

Я не хотів би мати абсолютно все 
Віддаючи комусь нічого не чекати 
На краю світу я зрозумів одне 
Неможливо у житті всі мрії наздогнати 
GDEm
Я шукав те що в мене було завжди
CDEm 
Але тільки зараз я це все побачив
0/0

20. Numai (користувач) 10.07.2009 13:39    
Тільки на слова "Подаруй світло" мав би бути Ре-мінор. Dm...
0/0

19. Numai (користувач) 05.07.2009 23:44    
Ну не знаю, мені здається пан Павло більш точні акорди написав, і все над правильними місцями, от самі перевірте.
0/0

18. Хмара (гість) 24.06.2009 08:35    
найкраща пісня в світі
СКАЙ це сила.
Антикаспер тебе любимо
0/0

17. Fiks (гість) 15.06.2009 21:01    
А каким перебором играть?
0/0

16. Кир (гість) 12.04.2009 18:02    
+ по желанию каподастр на 3-й лад(тональность оригинала)
0/0

15. Greenlight (користувач) 25.01.2009 17:05    
пісня просто ЧУДОВА!!!
Кукурудза, дякс за акорди, вдало підібрано але трохи не так поставлено над фразами...=(
ну принаймні я граю за таким варіантом:
____________G___________Em __________C
Я біжу на зустріч вітру аж на край землі 
Де я вірю залишилось щось хороше 
________G_________Em __________C
Я не знаю дім в якій мій стороні 
Я не знаю чи повернусь я туджи ще 


Навколо кружляють тисячі життєвих сцен 
Стрімко розбиваючись об каміння часу 
На великій відстані сняться мені сни 
Орази людей яких давно не бачив 

Дім завжди чекає тебе поглядом в вікні 
Рідні очі так жадають зустрічі з тобою 

_______________D____C_____________D____C 
Пр.: Подаруй світло    подаруй світло мені 
__________D____C_____________G 
подаруй світло     подаруй світло 

Я не хотів би мати абсолютно все 
Віддаючи комусь нічого не чекати 
На краю світу я зрозумів одне 
Неможливо у житті всі мрії наздогнати 


Я шукав те що в мене було завжди 
Але тільки зараз я це все побачив
Пр.
0/0

14. віталік (гість) 27.12.2008 14:58    
Дійсно чудова піся. Все Запоріжжя слухає тільки її.
0/0

13. gallya (гість) 21.11.2008 13:00    
услышала её и влюбилась =)
Мелодия сложная, витиеватая, слова - ах!...

побольше бы таких песен.

0/0

12. Мариша (гість) 15.11.2008 00:08    
Настолько здорово!!! Меня поражают люди, которые просто тупо послушали песню, ничего так и не поняли, и говорят о том ,какой это отстой! Какие слова, какая мелодия. Просто слушаешь и думаешь о том что нужно поменять свою жизнь и как будто откурывается второе дыхание, желание жить, просто потому, что это прекрасно....
0/0

11. ilix (гість) 02.11.2008 11:49    
Павло, твои аккорды самые достоверные! )) дякую )
0/0

10. Павло (гість) 28.10.2008 09:25    
Спробуйте
__________A#________________________Gm
Я біжу на зустріч вітру аж на край землі
_________D#__________________(F)
Де я вірю залишилось щось хороше
__________A#_________________Gm
Я не знаю дім в якій мій стороні
_________D#________________(F)
Я не знаю чи повернусь я туди ще


_______________F__D#_________F______D#
Пр.: Подаруй світло подаруй світло мені
_________F___D#_________A#__Gm________
подаруй світло подаруй світло подаруй світло

0/0

9. Elvis (гість) 06.10.2008 16:47    
Дякую за текст - Скай та Друга Ріка найкращі!
0/0

8. Вікторія (гість) 25.09.2008 13:02    
Дякую за акорди "світла" С.К.А.Й. !
0/0

7. Антикаспер (гість) 20.09.2008 19:39    
Каспер, ти сам цими словами себе описав!
0/0

6. Василь (гість) 15.09.2008 13:37    
Пісня чудова... Хапає за душу, коли вдумаєшся у слова...
0/0

5. Катерина (гість) 15.09.2008 12:01    
Песня замечательная.Текст очень хороший
0/0

4. kykyrydza (член клубу) 03.09.2008 18:10    
__________G_____________________Em 
Я біжу на зустріч вітру аж на край землі 
_______C 
Де я вірю залишилось щось хороше 
_______G_________________Em 
Я не знаю дім в якій мій стороні 
_______C 
Я не знаю чи повернусь я туджи ще 


Навколо кружляють тисячі життєвих сцен 
Стрімко розбиваючись об каміння часу 
На великій відстані сняться мені сни 
Орази людей яких давно не бачив 

_____________G__________________Em 
Дім завжди чекає тебе поглядом в вікні 
________C 
Рідні очі так жадають зустрічі з тобою 


______________D__C________D____C 
Пр.: Подаруй світло подаруй світло мені 
__________D__C________G__Em________C 
подаруй світло подаруй світло подаруй світло 



Я не хотів би мати абсолютно все 
Віддаючи комусь нічого не чекати 
На краю світу я зрозумів одне 
Неможливо у житті всі мрії наздогнати 


Я шукав те що в мене було завжди 
Але тільки зараз я це все побачив
0/0

3. Каспер (гість) 29.08.2008 21:24    
Ви лохи!!!
0/-2

2. Ерітрея (гість) 18.08.2008 14:58    
Просто сльози...
якби ви знали, куди досягає ця пісня, ці слова, ця мелодія, коли тебе і твоїх друзів, батьків, місто, країну розділяє океан!

ДЯКУЮ! - тим хто написав ці слова, написав ті ноти і поєднав їх в мелодію, і просто об"єднав це в єдину Пісню!
0/0

1. Sashko (член клубу) 22.07.2008 06:25    
а акордами ніхто не багатий, га?...
0/0

  Адреса цієї сторінки: http://www.pisni.org.ua/songs/769147.html

 ВХІД
Е-мейл: 
Пароль: 
  Забули пароль?
  
  ПІДПИШІТЬСЯ! ГРУПИ У СОЦМЕРЕЖАХ
FB