На головну сторінку

Квіти в волоссі


Слова: Андрій ХливнюкМузика: Андрій Хливнюк
Виконує: Бумбокс  (альбом "Family бізнес")
До мого пісенника: 1 2 3

 
Вступ:  Hm/H Hm/A# Hm/A Hm/G (x2)

Hm/H 
   Вона носила квіти в волоссі 
Hm/A# 
   І ними грався він і ще вітер 
Hm/A 
   Здавалося давно вже дорослі 
Hm/G
   Але кохали щиро мов діти 

Відчинені серця щирі очі 
Таких не так багато є в світі 
Лилися сльози щастя щоночі 
Обіцянки назавжди любити 

Будиночок на розі двох вулиць 
Паркан плющем осіннім завитий 
Здавалося дощі схаменулись 
Здавалося завжди буде літо 

Лише один дзвінок телефону 
І варто тільки їм захотіти 
Повіяло теплом з-за кордону 
А отже неодмінно летіти 

Приспів:
Hm/H      Hm/A 
   Не обіцяй назавжди 
Hm/G#     Hm/G  Hm/F# ...
   Не обіцяй навічно 
   Де твоє моє завтра 
   У скронях вітер свище 
   Не обіцяй навіщо 
   Не обіцяй не треба 
   Залежить час найближчий 
   Та не завжди від тебе 

І раптом все змінилось навколо 
Проблеми ціни сни сподівання 
Роз'їхалися як діти в школу 
Що першим було стало останнім 

Їй у Варшавські спальні райони 
Йому Москву бетоном залити 
Але кохання у таксофонах 
Приречене не довго прожити 

Куди ведуть строкаті дороги 
Чому ви заблукали у світі 
Вас сотні тисячі вас мільйони 
В Ізраїлі Канаді на Кріті 

Є спогади про те як було все 
Надії є на те як все буде 
Нас доля стрімко течією несе 
Бо ми є не титани ми люди 

Приспів.

Вона носила квіти в волоссі 
І ними грався він і ще вітер 
Здавалося давно вже дорослі 
Але кохали щиро мов діти


-----------------------------
Табулатура основної теми, 
адаптована для однієї 6-струнної гітари
Автор: bohdanko (pisni.org.ua)
Доповнив: shandor (pisni.org.ua)


E||-------------------------|------------------------|
H||-------------------------|----------------7-------|
G||*------------------------|-------------------7----|
D||*-----4-----0-------4----|-----4-----0------------|
A||---2-----2-------2-------|--1-----1---------------|
E||-------------------------|------------------------|


------------------------|----------------12--------|
------------------------|--------------------12----|
------------------------|--------------------------|
-----4-----0-------4----|-----4-----0--------------|
--0-----0-------0-------|--------------------------|
------------------------|--3-----3-----------------|

                                                   
------------------------|----------------------7--|
------------------------|----------------7--------|
------------------------|-------------------7-----|
-----4-----0-------4----|-----4-----0-------------|
--2-----2-------2-------|--1-----1----------------|
------------------------|-------------------------|

                                                    2x
------------------------|----------------12---------||
------------------------|--------------------12-----||
------------------------|--------------------------*||
-----4-----0-------4----|-----4-----0--------------*||
--0-----0-------0-------|---------------------------||
------------------------|--3-----3------------------||

                                                       
---------------------------|--------------------------|
---------2h3------2h3------|--------2--------------3--|
*-----4---------------4----|-----4-----4-----4--------|
*--------------------------|--------------------------|
---2-----------0-----------|--------------------------|
---------------------------|--4-----------3-----2-----|

                                                         
---------------------------|---------------------------||
--------2h3------2h3-5-----|--------3--------3-----2---||
-----4------------------4--|-----4-----4--------------*||
---------------------------|--------------------------*||
--2-----------0------------|---------------------------||
---------------------------|--4-----------3-----2------||
Поділитись сторінкою: FB
 
  ІНФОРМАЦІЯ ПРО ПІСНЮ
[cховати]

Ключові слова: Квіти в волоссі, Андрій Хливнюк, Бумбокс, Family бізнес
Джерело: http://bloggy.ru/Temna (текст)

Примітки: Акорди подано спрощено. Детальніше – у табулатурі.

Пісню ввів: bohdanko  13.10.2006
Відредаґовано: 17.07.2014
Переглядів: 83625
  ДИВІТЬСЯ ТАКОЖ
[cховати]
Інші варіянти цієї пісні
НазваСлова / МузикаA Файли  #
 Квiти в волоссi А. Хливнюк / А. Хливнюк+92600
 Аби побачити пояснення малюнків у колонці "Файли", підведіть курсор мишки до малюнка.      
Підбірки пісень:
Пісні про кохання, ліричні
Пісні про еміґрацію
  ВАША ДУМКА ТА ПОБАЖАННЯ
[cховати]
Якість підбору акордів
Оцінка: 4.2  Голосів: 215
 < ПоганоДобре > 
1 2 3 4 5
  ВИПРАВЛЕННЯ ТА ДОПОВНЕННЯ     ПРАВИЛА!     ДЕ СКАЧАТИ mp3 ?!
[cховати]
34. sviato (користувач) 04.12.2014 11:43    
Зробив дуже детальне відео
Вступ, приспів,2куплет як в оригіналі
http://youtu.be/qKNRNTx01sE
Також багато інших пісень, підписуйтесь на канал))
0/0

33. стир (користувач) 22.05.2013 14:38    
http://www.youtube.com/watch?v=HeD2BsoFNow
добре видно, як грати
0/0

32. King (гість) 07.11.2011 16:03    
Блін біля кожної піснї є акорди а ось як їх ставити незнати...придумайте якісь картінки...і до кожного акорда ставне ато в неті на один акорд 25 видів як його можна поставити!
0/0

31. Йуля)) (гість) 27.01.2010 15:45    
Ребят обьясните пожалуйста начинающей тупице как ИМЕННО ИГРАТЬ? бой, перебор и всё такое)))
0/0

30. Лянуля (гість) 04.01.2010 15:04    
бля твка класна пісня )
а як грати ??\\
0/0

29. yarstar (гість) 22.10.2009 15:51    
люди ви смішні ви що не бачити відмінності між тою музикою металіки і бумбокса? там зовсім інша гармонія, співпадає тільки перший такт
0/0

28. Чак Норріс (гість) 04.10.2009 11:58    
кучерявий

б"єш 2 а потім не забираючи палець з 2 ладу іншим притискаєш 3. прийом називається ,,хаммер,, (h)
0/0

27. кучерявий (гість) 30.06.2009 23:01    
ало народ я шось не в*їжжаю як то грати 2h3 - поможіть будьласка
0/0

26. роман (користувач) 24.05.2009 17:12    
А ДЕ ПРИСПІВ?????
0/0

25. Женя (користувач) 25.03.2009 13:30    
А що грати на 2 куплеті?
0/0

24. Міла (гість) 20.03.2009 22:54    
табулатура сильна штука)) я зоть в тих буквах і нотах ноль круглий і в тих всіх назвах, а по табах трохи граю)) дякую=) Бумбокс найкращі!! ну і фіг шо сперли в Металіки, в ним дуже пискляво, а тут так мягенько грає, гарно.
0/0

23. ЙА (гість) 16.02.2009 18:07    
Мля, бумбокс вкрав цю музику у Металліки!
0/0

22. Андрюха (гість) 09.10.2008 11:01    
Класно ось купив собі гітару вчу акорди але не доганяю шо таке табулатура
і як її читати скиньте які небуть сайти або пояснення на e-mail please
0/0

21. hjh (гість) 17.06.2008 12:47    
hjf
0/0

20. Громовій (користувач) 12.04.2008 10:09    
В мене понизилась повага до Бумбокса, коли почув пісню Металліки "One".Бумбокси зплагітували втуп з цієї пісні
0/0

19. Sladkaya ANN (гість) 27.09.2007 15:25    
Ребята, я из Нижнего Новгорода. это Россия. хотя сама украинка 100%-ная. я тут продвигаю украинскую музыку только так. я многих людей приучила к Океану Эльзы. теперь это их любимая группа, ВВ тоже в авторитете, Грин Грей, Тартак, Бумбокс.....За Бумбокс отдельное спасибо...)))У нас это массовый прорыв...)) не считая ВиаГры.
Правда, мне так радостно за вас и всех украинских исполнителей... отличная музыка, незатертые тексты..... у нас все уже по-другому...,(
в этом году, летом, я полюбила одного человека, в Крыму.) но получилось все конечно грустно... как в "Квiтах".жаль.... но не об этом... Бумбокс очень искренние. держитесь, ребята. Вас знают, вас уважают, вас любят!Все ждут от вас новых песен и альбомов. Только пойте.... ваши песни помогли мне справиться с печалью.из России с любовью и ностальгией по Родине(это не пустое слово) я езжу каждый год в Украину. все родственники тут.
0/0

18. sps-606 (гість) 15.06.2007 12:36    
Так, дійсно гарна пісенька...Metallica "One" з альбому "And Justice For All" 1988 рік. Андрій ти таки класний... плагіатор!
0/0

17. Мушка (гість) 17.04.2007 16:22    
Андрій ти такий класний!Так і хочеться цілувати твої пухкенькі губки!
0/0

16. Maxim (гість) 18.03.2007 23:53    
Я в таке кохання вірив. Довго вірив... Але все вийшло саме як тут.
0/0

15. Зорянка (гість) 14.03.2007 17:11    
Такі гарні слова.Про кохання на відстані. Я і сама в таке не вірю.Хоча хотілося б вірити. В самої таке кохання тривало не довго. Напевне просто не сильно любила. Не достатньо сильно. Справді,ми ж просто люди і всі хочемо тепла, ніжності і ласки.А телефоном це передати не можливо. Хто думає так, як я,або хоче мене переконати в протилежному,пишіть на мій номер 80979604534
0/0

14. ЯЯЯЯ (гість) 08.03.2007 00:28    
а як грати 2h3?
0/0

13. rosomashka (користувач) 10.02.2007 14:18    
ProDAM_MaK , щось я не можу розібратись у твоїй табулатурі, кінець приспіву якийсь заплутаний.
0/0

12. Капітошка (гість) 18.12.2006 17:51    
шось ваш то аудіозапис не грає (ніби його нема - пуста звукова доріжка)

(в мене з компом всьо чоттко

bohdanko: Не грає міді, яке є на цій сторінці? Чи я так зрозумів?
0/0

11. Олег (гість) 30.10.2006 19:12    
ви стільки всього хорошого написали, але мені важко це все злипити на гітарі, тільки початок і приспів виходить, ой а може цього достатньо
0/0

10. bohdanko (модератор) 29.10.2006 16:15    
Ashot! Дякую за уважність! Бачу, що є така помилка. Пораждуся з shandor (pisni.org.ua)
- а тоді зможу виправити.

ProDAM_MaK! Дай свою табулатуру у форматі ГітарПро, щоб ми могли точно звірити з нашою (якщо можеш).
0/0

9. ProDAM_MaK (гість) 27.10.2006 14:20    
Табулятура має бути така:

|-2-|--2--|--2--|-----2----|-2-|----2----|
|-3-|--3--|--3--|-----3----|-2-|----3----|
|-4-|--4--|--4--|-----4------------------------|----------------12--------|
------------------------|--------------------12----|
------------------------|--------------------------|
-----4-----0-------4----|-----4-----0--------------|
--0-----0-------0-------|--------------------------|
------------------------|--3-----3-----------------|
має бути так
------------------------|----------------12--------|
------------------------|--------------------12----|
------------------------|--------------------------|
-----4-----0-------4----|-----4-----0--------------|
--0-----0-------0-------|-------|---------------------------||
------------------------|--3-----3------------------||

                                                       
---------------------------|--------------------------|
---------2h3------2h3------|--------2--------------3--|
*-----4---------------4----|-----4-----4-----4--------|
*--------------------------|--------------------------|
---2-----------0-----------|--------------------------|
---------------------------|--4-----------3-----2-----|

                                                         
---------------------------|---------------------------||--------------------------|----|-3-|----4----|
|-4-|--4--|--4--|-----2----|-4-|----2----|
|-2-|--2--|--2--|-----2----|-4-|----2----|
|-2-|--6--|--5--|-----4----|-2-|----3----|2
0/0

8. Ashot (гість) 24.10.2006 20:36    
bohdanko а у Вас помилка:
------------------------|----------------12--------|
------------------------|--------------------12----|
------------------------|--------------------------|
-----4-----0-------4----|-----4-----0--------------|
--0-----0-------0-------|--------------------------|
------------------------|--3-----3-----------------|

має бути так
------------------------|----------------12--------|
------------------------|--------------------12----|
------------------------|--------------------------|
-----4-----0-------4----|-----4-----0--------------|
--0-----0-------0-------|--------------------------|
------------------------|--4-----4-----------------|
0/0

7. Хтось (член клубу) 17.10.2006 17:28    
Оріяна, розшифровка внизу, а відносно 6-го ладу, то каподастр тобі допоможе, або гра в тональності ля-мінор.. Є ще один варіант - зайнятись розтяжкою кисті
0/0

6. Оріяна (гість) 17.10.2006 01:36    
а можна для чайників розшифрувати акорди, які подані безпосередньо у пісні?!
А також пояснити: як можна на Hm зажимати бас на 6-му, 5-му ладу???
0/0

5. bohdanko (модератор) 16.10.2006 10:47    
Додав спрощено акорди. Бачу, "ХТОСЬ" дав свій варіант - також цікавий.
0/0

4. Хтось (член клубу) 15.10.2006 14:18    
 Hm  Hm/A# Hm/A  E7sus2/G#  F#  E7sus2/G

|-2-|--2--|--2--|-----2----|-2-|----2----|
|-3-|--3--|--3--|-----3----|-2-|----3----|
|-4-|--4--|--4--|-----4----|-3-|----4----|
|-4-|--4--|--4--|-----2----|-4-|----2----|
|-2-|--2--|--2--|-----2----|-4-|----2----|
|-2-|--6--|--5--|-----4----|-2-|----3----|
0/0

3. best (член клубу) 15.10.2006 11:06    
E7sus2/G#?
Hm/A?
E7sus2/G?
0/0

2. Хтось (член клубу) 14.10.2006 12:34    
5 балів!!!
=best: Hm,Hm/A,E7sus2/G#,E7sus2/G,F#
0/0

1. best (член клубу) 14.10.2006 11:57    
bohdank, super! ДЯКУЮ. А які акорди на приспів???
0/0

  Адреса цієї сторінки: http://www.pisni.org.ua/songs/743044.html

 ВХІД
Е-мейл: 
Пароль: 
  Забули пароль?
  
  ПІДПИШІТЬСЯ! ГРУПИ У СОЦМЕРЕЖАХ
FB