На головну сторінку

Не йди


Слова: С.К.А.Й., ГайтанаМузика:
Виконує: Гайтана, С.К.А.Й.  (альбом "Те, Що Треба")
До мого пісенника: 1 2 3

 
    Dsus2/D     /C#        /H /A
Як холодно без тебе, сумно як -
G              Dsus2  A
   Заплаканії вікна.
З тобою бути мій таємний знак,
що жити без тебе ніяк не звикну.

Так холодно коли тебе нема -
без сонця не воскресну.
Бо в серці залишилася зима,
а над тобою теплі весни.

     Dsus2/D     /H      G   A *
Не йди!     Не йди! Не йди!..

Як холодно без тебе - все біда
Сльоза біжить по скроні.
Життя моє лилось немов вода
крізь наші дві розведені долоні

Не йди! Не йди! Не йди...
Не йди! не йди! не йди!..

Як холодно без, тебе сумно як
Заплаканії вікна
З тобою бути мій таємний знак,
що жити без тебе ніяк не звикну

Не йди! Не йди! Не йди від мене!..
Не йди! Не йди! Не йди!..
Не йди! Не йди! Не йди!..
Не йди! Не йди! Не йди!..
Не йди...
Поділитись сторінкою: FB
 
  ІНФОРМАЦІЯ ПРО ПІСНЮ
[cховати]

Ключові слова: Не йди, С.К.А.Й., Гайтана, Те, Що Треба
Підбір акордів: bohdanko (pisni.org.ua)
Джерело: http://www.skay.com.ua

Примітки: Підібрано на слух з аудіо, спрощено.
Деякі із акордів:
Dsus2, Dsus2/D [x x 0 2 3 0]
Dsus2/C# [x 4 x 2 3 0]
Dsus2/H [x 2 x 2 3 0]
Dsus2/A [x 0 x 2 3 0]

* Тут і далі у приспіві можуть бути й інші акорди.

Доповнення:

TOHA:
"... В приспіві використовується така послідовність акордів: Dsus2/D-Dsus2/H-G-A, а от після другого приспіву (співає Олег), коли Гайтана співає без слів, гітарист грає такі акорди:перший раз Dsus2/D-Dsus2/H-Dsus2/A#-G-A другий раз Dsus2/D-Dsus2/H-Dsus2/A#-G-(пауза)Dsus2/D-куплет.
Штрих для правої руки у куплеті і, частково, у приспіві (коли гітарист грає пальцями):
    Q    E  E  Q    E  E      E  E  E  E  Q    E  E
E||-------------0----------|--------------0----------|
B||-------3----------3-----|--------3----------3-----|
G||----------2----------2--|-----2-----2----------2--|
D||--0---------------------|-------------------------|
A||------------------------|--4----------------------|
E||------------------------|-------------------------|

Q - quarter (1/4)
E - 8th (1/8)


Підбір-Ovovka (Tarasvm.90@mail.ru):

e|-0--5-7-7/9-----0--0-------0-----0------0----------0-0--------0-0----
h|-3--------------3-3--3-3--3-3---3-3---3---3----0---3-0----2---2-2/3-
g|-2--------------2-----2--2---2-2---2-2-----2--2-2--2-2---2-2--2-2/4-
D|-0--4-5-5/7/0---0----------------------------0---0------2---2--------
A|-0--------------0-------4-----2-----0--0---------------0-----0-0-----
E|--------------------------------------------3-----3-3-----------------

e|-----0-------0-----0-------0---------0-----------------
h|----3--3---3--3---3--3---3--3----0-----0----3p2-------
g|---2----2-2----2-2----2-2----2--2-2----2---2---2---2--
D|--0----------------------------0---0------2-----2-2----
A|---------4--4---2------0--0--------------0-------0--0--
E|------------------------------3-----3-3-3---------------

e|-----0-------0-----0-------0---------0--------------------
h|----3--3---3--3---3--3------3----0---3-0-----3p2-----2---
g|---2----2-2----2-2----2-2-------2-2--2--2---2---2--2-2-2-
D|--0----------------------------0---0-----0-2-----2-2---2--
A|---------4--4---2------0------------------0-------0-0-0---
E|------------------------------3-----3-3--------------------

e|----0-------0---0-------0------------------------
h|------3---3--3----3---3--3---3------0----2-3-2--
g|---2---2-2-----2---2-2----2---2---2--2---2-2-2--
D|--0-----0--0----------------0--0-0----0-2--------
A|--------------2-----2--2---------------0--0-0-0--
E|---------------------------3----3--3-------------

e|----0-------0----0-------0-----------------------
h|------3---3--3-----3---3--3-----0-----2-3p2--2--
g|---2---2-2----2-2---2-2----2--2---2---2-2-----2-
D|--0-----0--0-----------------0----0--2-----2----
A|---------------2-----2--2-----------0--0----0---
E|----------------------------3--3-3-3------------

e|----0-----0-----0-------0--------------------------
h|------3-----3-----3---3--3-------0----0---2-2--3---
g|---2---2-2---2-2---2-2----2----2---2---2--2--2--4--
D|--0---------------------------0-----0----2----2--5-
A|--------4-----2-----0--0----------------0--0-------
E|-----------------------------3--3----3-------------

e|----0-----0-----0-------0--------0--------------
h|------3-----3-----3---3--3-----0---0-----2-3-2--
g|---2---2-2---2-2---2-2----2----2----2----2-2-2--
D|--0---------------------------0------0--2-------
A|--------4-----2-----0--0---------------0--0-0-0-
E|-----------------------------3--3-3---3---------

e|--0---|-0---|-3---|-0---|-0-|-0-|-0-|
h|--3---|-3---|-3---|-0---|-2-|-3-|-5-|
g|--2-2-|-2-2-|-0---|-2---|-2-|-4-|-6-|
D|--0---|-0---|-0-0-|-2---|-2-|-5-|-7-|
A|--0---|-2---|-2---|-0---|-0-|-5-|-7-|
E|------|-----|-3---|-----|---|---|---|

e|--0---|-0---|-3---|-0---|-0-|
h|--3---|-3---|-3---|-0---|-3-|
g|--2-2-|-2-2-|-0---|-2---|-4-|
D|--0---|-0---|-0-0-|-2-2-|-5-|
A|--0---|-2---|-2---|-0---|-5-|
E|------|-----|-3---|-----|---|

e|--0---|-0---|-0---|-3---|-0-|
h|--3---|-3---|-3---|-3---|-1-|
g|--2-2-|-2-2-|-2-2-|-0---|-0-|
D|--0---|-0---|-0---|-0-0-|-2-|
A|--0---|-2---|-1---|-2---|-3-|
E|------|-----|-----|-3---|---|

e|--0---|-0---|-0---|-3----|-0-|
h|--3---|-3---|-3---|-3----|-3-|
g|--2-2-|-2-2-|-2-2-|-0--2-|-2-|
D|--0---|-0---|-0---|-0-0--|-0-|
A|--0---|-2---|-1---|-2----|-0-|
E|------|-----|-----|-3----|---|

e|----0------0-------0-------0-----------0--------------------
h|------3------3-------3-------3-----0-----0-----2---3p2---2--
g|---2---2--2---2---2---2---2---2---2-2-----2---2-2-----2--2--
D|--0-----0------------------------0---0-----0-----2-----2----
A|---------4-----4-2-----2-0-----0-------------0----0-----0-0-
E|--------------------------------3-----3-3---3---------------

e|----0------0-------0-------0----------------------------------
h|------3------3-------3-------3-----0---0-0-----2---3p2--3p2---
g|---2---2--2---2---2---2---2---2-----2--2--2-----2--2----2-----
D|--0-----0------------------------0---0-----0--2--2----2----2--
A|---------4-----4-2-----2-0-------------------0----0----0----0-
E|--------------------------------3-----3-3---3-----------------

e|--2---|-0---|-3---|-0---|-0-|-0-|
h|--3---|-3---|-3---|-2---|-3-|-5-|
g|--2-2-|-2-2-|-0---|-2---|-4-|-6-|
D|--0---|-0---|-0-0-|-2-2-|-5-|-7-|
A|--0---|-2---|-2---|-0---|-5-|-7-|
E|------|-----|-3---|-----|---|---|

e|--2---|-0---|-3---|-0---|
h|--3---|-3---|-3---|-2---|
g|--2-2-|-2-2-|-4---|-2---|
D|--0---|-0---|-5---|-2-2-|
A|--0---|-2---|-5-5-|-0---|
E|------|-----|-3---|-----|

e|--2---|-0---|-3---|-0---|-0-|-0-|-0-|
h|--3---|-3---|-3---|-0---|-2-|-3-|-5-|
g|--2-2-|-2-2-|-0---|-2---|-2-|-4-|-6-|
D|--0---|-0---|-0-0-|-2---|-2-|-5-|-7-|
A|--0---|-2---|-2---|-0---|-0-|-5-|-7-|
E|------|-----|-3---|-----|---|---|---|

e|--2---|-0---|-3---|-0---|-0-|-0-|-0---0-|
h|--3---|-3---|-3---|-0---|-2-|-3-|-5/0-3-|
g|--2-2-|-2-2-|-0---|-2---|-2-|-4-|-6---2-|
D|--0---|-0---|-0-0-|-2---|-2-|-5-|-7---0-|
A|--0---|-2---|-2---|-0---|-0-|-5-|-7---0-|
E|------|-----|-3---|-----|---|---|-------|


Пісню ввів(-ла): Luchien  15.05.2006
Відредаґовано: 20.11.2014
Переглядів: 82777
  ДИВІТЬСЯ ТАКОЖ
[cховати]
Підбірки пісень:
Пісні про кохання, ліричні
  ВАША ДУМКА ТА ПОБАЖАННЯ
[cховати]
Якість підбору акордів
Оцінка: 4.29  Голосів: 246
 < ПоганоДобре > 
1 2 3 4 5
  ВИПРАВЛЕННЯ ТА ДОПОВНЕННЯ     ПРАВИЛА!     ДЕ СКАЧАТИ mp3 ?!
[cховати]
31. Summer (користувач) 28.03.2011 21:15    
Тут не всі таби.
0/0

30. Марія (гість) 13.04.2010 20:25    
А чи є десь ноти цієї ж пісні для ФОРТЕПІАНО???
Дуже треба..)
0/0

29. Оля (гість) 30.03.2010 17:32    
Допоможіть знайти ноти
0/0

28. Натуся (гість) 20.03.2010 18:52    
Де мені знайти ноти? Народ, допоможіть!!! Дуже треба...
0/0

27. Альонка (гість) 19.03.2010 19:42    
Скажіть, будь-ласка, а чиї слова і музика??? Скай и Гайтани??
0/0

26. Альонка (гість) 19.02.2009 20:39    
Напишiть таби нотами,будь ласка! першого куплету. я заплуталася( i ще не можу зрозумiти перебip, який граеться у переходах...
0/0

25. Nastusyusinka (гість) 10.01.2009 11:36    
Народ маю багато мінусовок(фонограм), різних виконавців, якшо комусь тре пишіть на асю 437606678
0/0

24. Алдіс (користувач) 19.08.2008 22:22    
Пісенька дійсно суперова!!!Але хотілось бі ще побачити підбірку на ф-но)))
Уже просто не терпеться)
0/0

23. Berkut (гість) 14.02.2008 12:40    
Народ дуже потрібна мінусовка С.К.А.Й.І Гайтана Не йди.Поможіть знайти.Pleas
0/0

22. Оля (гість) 03.11.2007 21:34    
Вы просто МОЛОДЦЫ!У вас СУППЕРСКИЕ песенки!Так держать!
0/0

21. ljynberg Шв 09.10.2007 16:45    
Де можна скачати фонограму пісні "Не йди" Гайтани і Скаїв
0/0

20. Polina (гість) 16.06.2007 13:13    
druzy dopomogit ska4atu pisnu " Ne Idu" ni de ne mogy zavantagutu. ysudu yakis prukolu. zkunte ssulky na mii e-mail
0/0

19. }{yliGanka (гість) 07.11.2006 17:47    
всем приветик !
Услышав песню Гайтаны и Ская "не йди" меня она очень привлекла своей спокойностью ! мне кажеться что она немного связана с моей жизнью
0/0

18. ANDRIY (гість) 21.09.2006 21:11    
Пісня просто супер! Завжди приємно слухати! Таке враження, що вона мені ніколи не надоїсть! Маю велике прохання - напишіть будь ласка повну табулатуру! А то в мене щось не все виходить! Велике спасибі!
0/0

17. olja (гість) 07.09.2006 02:35    
абалденна пісенька,хочеться кохати і плакати від цього
0/0

16. TOHA (гість) 20.08.2006 17:29    
Q - 1/4 E - 1/8
0/0

15. ТОНА (гість) 20.08.2006 17:26    
Штрих для правоъ руки у куплеті і, частково, у приспіві (коли гітарист грає пальцями):
    Q    E  E  Q    E  E      E  E  E  E  Q    E  E
E||-------------0----------|--------------0----------|
B||-------3----------3-----|--------3----------3-----|
G||----------2----------2--|-----2-----2----------2--|
D||--0---------------------|-------------------------|
A||------------------------|--4----------------------|
E||------------------------|-------------------------|

Q - quarter
E - 8th
0/0

14. TOHA (гість) 20.08.2006 17:10    
Стосовно акордів. Все ж таки в приспіві використовується така послідовність акордів: Dsus2/D-Dsus2/H-G-A (виправте Bohdanko, атже Ви були праві), а от після другого приспіву (співає Олег), коли Гайтана співає без слів, гітарист грає такі акорди:перший раз Dsus2/D-Dsus2/H-Dsus2/A#-G-A другий раз Dsus2/D-Dsus2/H-Dsus2/A#-G-(пауза)Dsus2/D-куплет..
0/0

13. Ксеня (гість) 11.08.2006 15:54    
сорри, что лезу..мне тож оч-оч нравицо эта песня! и я так люблю украину...
0/0

12. LuxAeterna (гість) 10.08.2006 13:11    
Не можу все таки ,незважаючи, на ссилки які Ви робите завантажити пісні! Караул! Допоможіть! Дуже хочу композицію "Не йди!"
0/0

11. verba (гість) 01.08.2006 14:47    
Де скачати пісню не йди
0/0

10. TOHA (гість) 27.07.2006 18:57    
0/0

9. TOHA (гість) 27.07.2006 18:48    
Шановний bohdanko і інші учасники цього форуму. Ви мабуть помітили, що гітарист спочатку грає пальцями а потім медіатором (у приспіві). Тому у приспіві замість Dsus2 з різними басами він використовує прості акорди з баре: D-Hm-G-A. Крім цього в програші в середині пісні замість G використовується Gm7. Bohdanko ви чудово підібрали на слух гітарну партію в пісні "Дякую" Океана Ельзи. Може таким чином зможете підібрати і соло Гудімова в "Для тебе" ?

"bohdanko" (модератор): Я не бачив як той гітарист грає. Маю пісню тільки в аудіо. При нагоді внесу Ваші виправлення і доповнення, якщо моє вухо з ними буде згодне

0/0

8. Jrek (гість) 25.07.2006 22:15    
А от Вам ше один лінк на цю музичну композицію : http://mp3-online.com.ua/index.php?page=song&id=416
0/0

7. Дмитро Волошин (член клубу) 18.07.2006 21:16    
А там точно бас Eb?

"bohdanko" (модератор): ...Ні. Це помилка. Зараз виправлю і цю, і інші помилки.

0/0

6. Василь (гість) 17.07.2006 11:29    
мп3: http://www.navsi100.com/singers.phtml?singers_id=293
0/0

5. fun (гість) 16.07.2006 22:14    
Знайшов робочий лінк на MP3: http://www.uhradio.com.ua/music/save/180/ - можна качати!!!
0/0

4. fun (гість) 16.07.2006 22:10    
Хто знає, де можна скачати - дайте робочий лінк! Лінк http://shareua.com/files/03da1a/Ne_jdi.mp3.html не працює
0/0

3. Judge (гість) 25.06.2006 11:08    
Коли будуть акорди???
0/0

2. Валсінатс (член клубу) 16.05.2006 21:12    
А навіщо писати, що з акордами?

webmaster: То я проґавив Вже виправлено.
0/0

1. best (член клубу) 16.05.2006 19:58    
А, та я слова сам знаю! А, от акорди підібрати ше треба!
0/0

  Адреса цієї сторінки: http://www.pisni.org.ua/songs/438083.html

 ВХІД
Е-мейл: 
Пароль: 
  Забули пароль?
  
  ПІДПИШІТЬСЯ! ГРУПИ У СОЦМЕРЕЖАХ
FB