На головну сторінку

Сам собі країна

(Не встидайся – то твоя земля)

виправлена версія, з табулатурою

Слова: СкрябінМузика: Скрябін
Виконують:
Скрябін  (альбом "Озимі люди")
Олександр Пономарьов  (альбом "Я люблю тільки тебе")
До мого пісенника: 1 2 3

 
Вступ:  Em A G A  (2) *

Em                  A7
   На твоїх джінсах   американський прапор
G                      A7
   На твоїй майці - канадське кленове листя
Em                     A7
   У твоїх очах видно тільки одне питання
G                      A7
   Хто мені скаже - чому я тут народився
Am            H7                      Am
   Не твоя вина - шо ти батька свого син
             H7
   А твоя біда - не вміти бути ним

Приспів:
Em         G                  D
   Не встидайся - то твоя земля
           A             Em
   Не встидайся - то Україна
          G              D
   Добре там є де нас нема
              A                 Em
   Стань для батька нормальним сином


Ти знову купиш cтруйові німецькі шузи
Твої вуха давно вже звикли до чужої музики
На твоїх губах застигла гримаса болю
Чому я тут ше - я хочу давно на волю!

Не твоя вина - шо ти батька свого син
А твоя біда - не вміти бути ним

Приспів.

Щодня близько 1000 українців
подають документи на еміграцію.
Щодня близько 500 українців ступають на чужу землю
у пошуках кращого життя з метою залишитись там.
Ці люди відмовляються від своєї культури
і своїх звичаїв, своєї віри.
Більшість з них до кінця життя працює чорноробочими,
так і не діставши статусу громадянина чужої країни.
А, можливо, їхня біда полягала в тому,
що відповідь треба було шукати в собі,
а не в підручнику географії.
Ти сам собі країна! Зроби порядок в своїй голові!

Приспів.


*****
Табулатура основної мелодії для гітари:
(підібрав bohdanko)

1-й куплет:  *
      Em
E||-------------3-----------------3----------|
B||------------------------------------------|
G||*--------------------------------------0--|
D||*------------2-----------------2----------|
A||------------------------------------2-----|
E||---0----0-----------------0---------------|
          На  твоїх джінсах
           У  твоїх очах         вид- но

  A7
------------3-----------------3----------|
-----------------------------------------|
-----------------------------------------|
------------2-----------------2-------0--|
--0----0-----------------0---------0-----|
-----------------------------------------|
     амери-канський  прапор
 тіль-ки одне      питання

  G
------------3-----------------3-------3--|
-----------------------------------------|
-----------------------------------------|
------------0-----------------0-------0--|
-----------------------------------2-----|
--3----3-----------------3---------------|
      На  твоїй      майці -
     Хто   мені      скаже -

  A7
------------3------------------3-----------||
-------------------------------------------||
------------------------------------------*||
------------2------------------2-------0--*||
--0----0------------------0---------0------||
-------------------------------------------||
    канадське кленове листя
    чому я тут    народився

   Am
-------------------------------------------|
-------------1-------------------1---------|
*-------2---------2---------2---------2----|
*--2-------------------2-------------------|
---0-------------------0-------------------|
-------------------------------------------|
            Не       твоя       ви-
  син             А  твоя       бі-

  H7
--------------------------------------------||
------------0--------------------0----------||
-------2---------2----------2---------2----*||
--4--------------------4-------------------*||
--2--------------------2--------------------||
--------------------------------------------||
 на -           шо ти бать-ка  сво-  го
 да -                 не  вміти бути ним

Приспів:
   Em                  G
-----------------------------------3--------|
-----------------------------------0--------|
*------------0---------------------0--------|
*------------2------------------------------|
--------------------------------------------|
---0----0--------------3----3---------------|
               Не встидайся - то твоя
   ї-  на       Добре там є    де нас
    D                    A
--------------5------------------------------||
--------------3--------------------2---------||
--------------2--------------------2--------*||
--------------------------------------------*||
-------------------------0----0--------------||
----2----2-----------------------------------||
земля            Не встидайся - то Укра-
 нема         Стань для батька нормальним сином ...
Поділитись сторінкою:
 
  ІНФОРМАЦІЯ ПРО ПІСНЮ
[cховати]

Ключові слова: Сам собі країна, Не встидайся – то твоя земля, Скрябін, виправлена версія, з табулатурою, Озимі люди, Олександр Пономарьов, Я люблю тільки тебе
Підбір акордів: bohdanko
Джерело: текст(основа): http://skryabin.ru , зміни і доповнення - з аудіоверсії

Примітки: * Вступ грається за тою ж табулатурою, що й 1-й куплет.

Пісню ввів: bohdanko  04.04.2004
Відредаґовано: 01.10.2016
Переглядів: 127289
  ДИВІТЬСЯ ТАКОЖ
[cховати]
  ВАША ДУМКА ТА ПОБАЖАННЯ
[cховати]
Якість підбору акордів
Оцінка: 4.29  Голосів: 90
 < ПоганоДобре > 
1 2 3 4 5
  ВИПРАВЛЕННЯ ТА ДОПОВНЕННЯ     ПРАВИЛА!     ДЕ СКАЧАТИ mp3 ?!
[cховати]
11. ryllaz 03.06.2015 20:21    
Ось рок-версія

Dm______________G
На твоїх джінсах американський прапор
F_______________G
На твоїй майці - канадське кленове листя
У твоїх очах видно тільки одне питання
Хто менi скаже - чому я тут народився

B_________A
Не твоя вина - шо ти батька свого син
А твоя біда - не вміти бути ним

Dm____F________________C
Не стидайся - то твоя земля
______G___________Dm
Не стидайся - то Україна
Добре там є де нас нема
Стань для батька нормальним сином
0/0

10. Andriy Nevynyak (користувач) 24.02.2015 23:01    
Зацініть урок на YouTube від Святослава. http://youtu.be/vrALBs9NVGw дуже якісні відео, Все зрозуміло)))
0/0

9. Death (користувач) 25.02.2010 11:06    
дайте табу на соло
0/0

8. Mixon (гість) 17.08.2009 16:25    
пряма ссилка на скачування файлу Скрябін - Сам собі Країна
http://www.minus.lviv.ua/download/1/964.html/SAM_SOBI_KRAJINA_Skrjabin.mp3
0/0

7. kykyrydza (член клубу) 21.02.2009 21:23    
ftp://files.ukraine.ck.ua/pub/Ukrayinika/Українська музика/С/Скрябін/Озимі люди/Скрябін - Cам собі країна.mp3

ftp://files.ukraine.ck.ua/pub/Ukrayinika/Українська%20музика/С/Скрябін/Озимі%20люди/Скрябін%20-%20Cам%20собі%20країна.mp3
0/0

6. Вадім (гість) 26.09.2006 20:01    
А тут можна безкоштовно скачати пісню, правда з невеликою швидкістю http://www.muzon.com/dld_menu.php?s_name=Skryabin/2002._Ozymi_lyudy/05._Sam_sobi_krayina.mp3
0/0

5. bohdanko (модератор) 26.01.2005 22:26    
maciekkk! Назар! Сашко!
Я щойно поклав тут замість попередньої версії оновлену версію з табулатурою. Чекаю відгуків!
0/0

4. bohdanko (модератор) 18.01.2005 14:30    
Можна грати і без перебора... як у драйвовій версії від Сашка Пономарьова...

У поданій тут версії я подав спрощений варіант для гітари. Деякі акорди реально не відповідають перебору, яким пісня насправді зіграна у "Скрябіна". Отже, деякі акорди можна легко замінити на інші - більш чи менш подібні.

Бачу, треба мені таки написати табулатуру основної гітарної теми...
0/0

3. Сашко (гість) 13.01.2005 16:37    
мені взагалі не зрозуміло, як грати, перебором......як яким??

bohdanko (модератор) 18.01.2005 14:30
Можна грати і без перебора... як у драйвовій версії від Сашка Пономарьова.
0/0

2. maciekkk (член клубу) 17.11.2004 15:05    
на моє вухо всюди, де А має бути Am
0/0

1. Назар (гість) 08.11.2004 12:21    
Пісня починається не акордами.
0/0

  Адреса цієї сторінки: http://www.pisni.org.ua/songs/34020.html

 ВХІД
Е-мейл: 
Пароль: 
  Забули пароль?
  
  ПІДПИШІТЬСЯ! ГРУПИ У СОЦМЕРЕЖАХ