На головну сторінку

Хвилюватися немає причин


Слова: Андрій ХливнюкМузика: Бумбокс
Виконує: Бумбокс  (альбом "Family бізнес")
До мого пісенника: 1 2 3

 
Hm                                   C#
Я точно знаю в тебе тато влучний мисливець
         F#                    Hm
Я знаю твоя мама точно зам воєнкома
                                           C#  
Чому, скажи мені ти в жахливих снах не наснилась
                 F#                   Hm
Навіщо нас тоді спільний дружбан познайомив.


Якби мені тоді дали один тільки натяк
Я б замість Люсі називав тебе завжди Надя
Тепер благаю відпусти, не хочу, не треба
Ми родичі, я наполягаю, що я твій дядя.

Приспів (2):

Hm                             C#
Хвилюватися немає причин, як дають, то бери
       F#               Hm  
Якщо б'ють, то біжи, кричи.
Hm                            
Технологія проста: ким би ти не став
C#                         F#            Hm
Зранку встав, присідай до ста і читай устав.

Телебачення і в день і в ночі
Дорогі глядачі, нам сюди надішліть листа
Ми його тут покладем в лото трон
Ви програли, пардон, селяві, і живіть до ста.


Обіцяли, що дадуть аксельбанти
Сподівались, нас по квартирах розселять
Ай, немає нікого крутішого за курсантів
Та чомусь діди кругом такі не веселі.
Якби мені тоді дали один тільки натяк
Я б пішов в ботани, в бібліотеці б зашився
Став би зіркою, катався б, тікав від фанатів
Та навряд, чи сам собою б лишився.

Приспів.

Обіцяли роялті від продажі альбому
А по тєліку вони в брулях лімузинах
Я чекав, минуло більш ніж п'ять років по тому
Впізнає мене в крамниці тепер тьотя Зіна.
Якби мені тоді дали один тільки натяк
Я б не знаю ким би став, куди б, де забіг би
Годі наді мною дослідів, ой, нєнада
Зупиніть на світлофорі планету - я вийду.

Хвилюватися немає причин, як дають, то бери
Якщо б'ють, то біжи, кричи.
Технологія проста: ким би ти не став
Зранку встав, присідай до ста і читай устав.
Телебачення і в день і в ночі
Дорогі глядачі, нам сюди надішліть листа
Ми його тут покладем в лохо трон
Ви програли, пардон, селяві, і живіть до ста.

Приспів.
Поділитись сторінкою: FB
 
  ІНФОРМАЦІЯ ПРО ПІСНЮ
[cховати]

Ключові слова: Хвилюватися немає причин, Андрій Хливнюк, Бумбокс, Family бізнес

Пісню ввів: Іван Колесник  06.11.2006
Відредаґовано: 01.10.2014
Переглядів: 29699
  ДИВІТЬСЯ ТАКОЖ
[cховати]
Підбірки пісень:
Жартівливі пісні
  ВАША ДУМКА ТА ПОБАЖАННЯ
[cховати]
Якість підбору акордів
Оцінка: 4.59  Голосів: 44
 < ПоганоДобре > 
1 2 3 4 5
  ВИПРАВЛЕННЯ ТА ДОПОВНЕННЯ     ПРАВИЛА!     ДЕ СКАЧАТИ mp3 ?!
[cховати]
6. voin747 (гість) 24.08.2011 12:48    
DeL_8 ти з табами явно шось наплутав а от Москалю дякую, походу так воно і грається.
0/0

5. Москаль (гість) 23.03.2008 14:00    
в табе, что я писал все строки поплыли - не моя вина. В редакторе сообщения все символы одного размера, а в действительности минусы получаются намного меньше((
0/0

4. Москаль (гість) 23.03.2008 13:57    
----------------------------------------------|
----2-3--5-3--2h3p2--0--2-3----2-3----2-3-----|
3s4----------------------------3-4----3-4-----|
----------------------------------------------|
-----------------------------4------4------2--|
----------------------------------------------|



--------------1s2---0-------------------------|
----2-3--5-3------------2-3----2-3----2-3-----|
3s4----------------------------3-4----3-4-----|
----------------------------------------------|
-----------------------------4------4------2--|
----------------------------------------------|


----------------------------------------------|
----2-3--5-3--2h3p2--0--2-3----2-3----2-3-----|
3s4----------------------------3-4----3-4-----|
----------------------------------------------|
-----------------------------4------4------2--|
----------------------------------------------|


--0-0-0-0-------------------------------------|
-----------3--2h3p2--0--2-3----2-3----2-3-----|
-------------------------------3-4----3-4-----|
----------------------------------------------|
-----------------------------4------4------2--|
----------------------------------------------|

подобрал за 30 минут, возможны косяки, но имхо очень похоже
0/0

3. DeL_8 (гість) 21.01.2008 15:34    
Значіть аккорди Hm F# (по колу, уважно прослухайте все просто і зрозуміло) зараз постараюся написати табу
E||--------------------------------------------------|
B||-------------3h--4----6----4----3g3-------3h--4h--|
G||*-------5------------------------------5----------|
D||*-------------------------------------------------|
A||---3----------------------------------------------|
E||--------------------------------------------------|
Дивіться, пробуйте (таба першого програшу, далі йдуть варіації на тему) 
ПС я не професіонал, так що помилки можливі, якщо хтось виправе буду вдячний. А якщо комусь допоміг буду РАДИЙ =)
0/0

2. be$t (гість) 25.06.2007 19:32    
Підберіть хтось табулатуру, плз
0/0

1. БАБАХ (член клубу) 13.06.2007 01:41    
Допоможіть!
піберіть або хто може знає як грається ця пісня дайте табулатуру. дуже треба.
ЗАЗДАЛЕГІДЬ ДЯКУЮ ВСІМ ХТО ВІДКЛИКНЕТЬСЯ.
0/0

  Адреса цієї сторінки: http://www.pisni.org.ua/songs/243596.html

 ВХІД
Е-мейл: 
Пароль: 
  Забули пароль?
  
  ПІДПИШІТЬСЯ! ГРУПИ У СОЦМЕРЕЖАХ
FB